PrimaNota.ru - самый крупный в мире бесплатный архив песенных текстов, аккордов, табулатур и нот


Love Hate - Fuel to Run - текст песни, бас-таба, видео

Регистрация Запомнить меня
Войти через:  Facebook Google Twitter Vk Yandex Mail.ru

Love Hate - Fuel to Run - текст песни, бас-таба, видео

Печатать
Просмотров: 81
-------------------------------------------------------------------------------
                                    Fuel to Run - Love/Hate
-------------------------------------------------------------------------------

Tabbed by: ChrisT

From the album: Blackout in the red room (1990)

Tuning: Eb,Ab,Db,Gb

Intro          Repeat x4                
Gb|---------------------|
Db|o-------------------o|
Ab|o-------------------o|
Eb|---5---5---0h3-4-5---|

Verse 1
Gb|--------------|---------------------|----------------|---------------------|
Db|--------------|o-------------------o|----------------|o-------------------o|
Ab|--------------|o--5---5---0h3-4-5--o|----------------|o--5---5---0h3-4-5--o|
Eb|---5----------|---------------------|---5------------|---------------------|

Chorus
Gb|--------------------------------------|------------------------------------|
Db|--------------------------------------|o----------------------------------o|
Ab|--3-------------------3---------------|o--------------------------3-------o|
Eb|----------3-3-3---------------1-2-3---|---3-5---5---3-5---5---1-------3----|

Gb|---------------------|
Db|o-------------------o|
Ab|o-------------------o|
Eb|---5---5---0h3-4-5---|

Verse 2
Gb|--------------|---------------------|----------------|---------------------|
Db|--------------|o-------------------o|----------------|o-------------------o|
Ab|--------------|o--5---5---0h3-4-5--o|----------------|o--5---5---0h3-4-5--o|
Eb|---5----------|---------------------|---5------------|---------------------|

Chorus                                                               Repeat x4
Gb|--------------------------------------|------------------------------------|
Db|--------------------------------------|o----------------------------------o|
Ab|--3-------------------3---------------|o--------------------------3-------o|
Eb|----------3-3-3---------------1-2-3---|---3-5---5---3-5---5---1-------3----|

Bridge                     
Gb|----------------------------------------------------------------------|
Db|----------------------------------------------------------------------|
Ab|--5-------3---2-----------------------------3-------5-------3---2-----|
Eb|----------------3---3-5---5---3-5---5---1-------3-----------------3---|

Guitar solo                   Repeat x4
Gb|------------------------------------|
Db|o----------------------------------o|
Ab|o--------------------------3-------o|
Eb|---3-5---5---3-5---5---1-------3----|

Chorus                        Repeat x3
Gb|------------------------------------|--------------------------------------|
Db|o----------------------------------o|--------------------------------------|
Ab|o--------------------------3-------o|--------------------------------------|
Eb|---3-5---5---3-5---5---1-------3----|--3-5---5---3-5---5---1---2---3---5---|

Outro                         Repeat x3
Gb|------------------------------------|--------------------------------------|
Db|o----------------------------------o|--------------------------------------|
Ab|o--------------------------3-------o|--------------------------------------|
Eb|---3-5---5---3-5---5---1-------3----|--3-5---5---3-5---5---1---2---3---5---|

Gb|------------------------------------|
Db|o----------------------------------o|
Ab|o--------------------------3-------o|
Eb|---3-5---5---3-5---5---1-------3----|


| /  slide up
| \  slide down
| h  hammer-on
| p  pull-off
| ~  vibrato
| +  harmonic
| x  Mute note
===============================================================================
Добавлено: 14.06.2016
Другие материалы по этой песне:
  • Аккорды и текст

Страница создана 19.07.2012
http://primanota.ru/love-hate/fuel-to-run-chords.htm
Привет, Гость.
Предлагаем пройти революционный курс по гитаре.
Подарок от PrimaNota.Ru, забирай!