PrimaNota.ru - самый крупный в мире бесплатный архив песенных текстов, аккордов, табулатур и нот


Love Equals Death - When We Fall - текст песни, бас-таба, видео

Регистрация Запомнить меня
Войти через:  Facebook Google Twitter Vk Yandex Mail.ru

Love Equals Death - When We Fall - текст песни, бас-таба, видео

Печатать
Просмотров: 121
Band: Love Equals Death
Song: When we fall
Album: Nightmerica

Please Rate!

Intro:

G|------------------------|
D|------------------------| 
A|-32----3>--5>--3>--5>7*-| 
E|---3-0>--3>--0>--3>-----|

> = play 7 times
* = play 11 times

Verse:

G|-------------------------|
D|-222222222222------000---| 
A|-------------333333---22-| x4
E|-------------------------|

Pre-chorus:

G|------------|
D|------------| 
A|-333333-32--| 
E|----------3-|

Chorus

G|------------------|
D|------------------| 
A|---3>--5>--3>--5>-| 
E|-0>--3>--0>--3>---|

Post Chorus 1:

G|-----------------|
D|-----------------| 
A|------79/10\9----| (10's not 1's and 0's)
E|-00000-------107-|

/ = slide up
\ = slide down

Then:
Verse x2
Pre chorus
Chorus

Post Chorus 2:

G|--------------|
D|--------------| 
A|-322-322-322--| 
E|----3---3---3-|

Bridge:

G|------------|
D|------------| 
A|---------3>-| x3
E|-3230>323---|

Bridge end:

G|-------|
D|-------| 
A|-5>----|
E|----0~-|

Final Chorus

G|------------------|
D|---.---.----------| 
A|-.-3-.-5---3~--5~-| 
E|-0---3---0~--3~---|

. = staccato
~ = let ring

G|----------|
D|----------| 
A|---3>--5>-| x4 
E|-0>--3>---|

End note:

G|----|
D|----| 
A|----|
E|-0~-|
Добавлено: 29.05.2012
Другие материалы по этой песне:
  • Аккорды и текст

Страница создана 29.05.2012
http://primanota.ru/love-equals-death/when-we-fall-chords.htm
Привет, Гость.
Предлагаем пройти революционный курс по гитаре.
Подарок от PrimaNota.Ru, забирай!