PrimaNota.ru - самый крупный в мире бесплатный архив песенных текстов, аккордов, табулатур и нот


Love And Death - Whip It - таба, бас-таба, видео

Регистрация Запомнить меня
Войти через:  Facebook Google Twitter Vk Yandex Mail.ru

Love And Death - Whip It - таба, бас-таба, видео

Печатать
Просмотров: 270
Love And Death: Whip It

Transcribed by: mysticguitar77

YouTube Username: MysticGuitar77

Love And Death's website: http://www.loveanddeathmusic.com/

Date last modified: March 4, 2013

Tuning: Drop G# (G#,D#,G#,C#,F#,A#,D#)

Note: I play it on a 7-string, the band actually uses 6-string baritones, but
      the tuning is the same so you can play it on either one.

Riff 1
D#|--------------------------------------------------------|
A#|--------------------------------------------------------|
F#|-----------------------8--------------------------------|
C#|-------------------7---7--------------------7-----------|
G#|-------------------6---6--------------------6-----------|
D#|---------3b5-------5---5----------3b5-------5-------3h6-|
G#|-0-0-3-5------0000---0----0-0-3-5------0000---0-3h5-----|

Play Riff 1 x2

Riff 2   "Crack that whip and..."
D#|-------------------------------------------------|
A#|-------------------------------------------------|
F#|-----------------------------------------------8-|
C#|-------------------------------------------7---7-|
G#|-------------------------------------------6---6-|
D#|---------3-----------------------3---------5---5-|
G#|-0-0-3-5---0-0-000-000-000-0-3-5---0-0-000---0---|
    * * * * * * * *** *** *** * * * * * * ***

Play Riff 2 x3   "Step on a crack..."

Riff 2 ending
D#|-----------------------------|
A#|-------------------------15b-|
F#|-------------------------11b-|
C#|-----------------------------|
G#|-----------------------------|
D#|---------3-------------------|
G#|-0-0-3-5---0-0-000-0-000-----|
    * * * * * * * *** * ***

Riff 3   "Now whip it into shape..."
D#|-------------------------------------------------------------------|
A#|-------------------------------------------------------------------|
F#|-------------------------------------------------------------------|
C#|-3-3-3-3-3-3-3-3-------------------------10-10-9-9-----------------|
G#|-0-0-0-0-0-0-0-0-5-5-5-5-5-5-5-5-0-0-0-0-x--x--x-x-7-7-7-7-7-7-7-7-|
D#|-1-1-1-1-1-1-1-1-3-3-3-3-3-3-3-3-0-0-0-0-8--8--7-7-7-7-7-7-7-7-7-7-|
G#|-----------------3-3-3-3-3-3-3-3-0-0-0-0-----------7-7-7-7-7-7-7-7-|
                                  ^ ends here final time

Play Riff 3 x3   "Now whip it into shape..."
Play Riff 1 x1
Play Riff 2 x3   "Crack that whip and..."
                 (w/ ending)
Play Riff 3 x3   "Now whip it into shape..."

Fill 1
D#|-----------------------------|
A#|-----------------------------|
F#|-----------------------------|
C#|-----------------------------|
G#|-----------------------------|
D#|-5-----5-----------5-----5---|
G#|---6-0---6-030-0-0---6-0---0-|

Play Fill 1 x2

Riff 4
D#|------------------------------------------------------------|
A#|------------------------------------------------------------|
F#|------------------------------------------------------------|
C#|------------------------------------------------------------|
G#|------------------------------------------------------------|
D#|-5-----5-----------5-----5--------5-----5-----------5-----5-|
G#|---6-0---6-030-0-0---6-0---6-0------6-0---6-030-0-0---6-0---|

D#|-----------------|
A#|-----------------|
F#|-----------------|
C#|-----------------|
G#|-----------------|
D#|-----3h6-----5h8-|
G#|-3h5-----5h7-----|

Play Riff 4 x2   "I say whip it, whip it good..."
Play Riff 3 x3   "Now whip it into shape..."
Play Riff 4 x2

Enjoy!!
Добавлено: 20.08.2013
Другие материалы по этой песне:
  • Аккорды и текст

Страница создана 20.08.2013
http://primanota.ru/love-and-death/whip-it-chords.htm
Привет, Гость.
Предлагаем пройти революционный курс по гитаре.
Подарок от PrimaNota.Ru, забирай!