PrimaNota.ru - самый крупный в мире бесплатный архив песенных текстов, аккордов, табулатур и нот


Love And Death - Bruises - таба, видео

Регистрация Запомнить меня
Войти через:  Facebook Google Twitter Vk Yandex Mail.ru

Love And Death - Bruises - таба, видео

Печатать
Просмотров: 274
-------------------------------------------------------------------------------
                             Bruises - Love And Death
-------------------------------------------------------------------------------
Tabbed by: antbay4

Tuning: Full step down (D tuning)

intro:
6-----6------6-----------------6-----6------6---------------
--8-----8------8---8-9-----------8-----8------8---8-9-------
----------10-----8-----8---8-------------10-----8-----8---8- 
----6--------------------8---------6------------------------
--------------------------------------------------------6---
------------------------------------------------------------

verse same as intro

Hearing voices in your head ...

6-----6------6-----------------6-----6------6---------------
--8-----8------8---8-9-----------8-----8------8---8-9-------
----------10-----8-----8---8-------------10-----8-----8---8- 
----6--------------------8---------6------------------------
--------------------------------------------------------6---
------------------------------------------------------------

@author: antbay4

pre-chorus:

They bleed you dry  They bleed you dry
1--------------2----4--
3--------------4----6--
3--------------4----6--
---------------3----5--
-----------------------
-----------------------


chorus:

6-----1-----2----------
8-----3-----4----6-----
8-----3-----4----8-----
------------3----8-----
-----------------------
--8-9---8-4---8-9--11-8


second verse same as first
pre-chorus 
chorus

bridge:

6-6-6/5-5-5-------------6/8-8-8-
------------3-3-3/4-4-4---------
--------------------------------
--------------------------------
--------------------------------
--------------------------------

6-6-6-6-6/5-5-5-------------6/8--8--8--
8-8-8-8-8/7-7-7-3-3-3/4-4-4-8/10-10-10-
8-8-8-8-8/7-7-7-5-5-5/6-6-6-8/10-10-10- repeat several times
------6---------5-5-5/6-6-6------------
------6--------------------------------
------6--------------------------------

final chorus:

6--1--2--6
6--3--4--6
8--3--4--8
6--1--3--8
6--1--2--6
6--1--2--6


outro like into

6-----6------6-----------------6-----6------6---------------
--8-----8------8---8-9-----------8-----8------8---8-9-------
----------10-----8-----8---8-------------10-----8-----8---8- 
----6--------------------8---------6------------------------
--------------------------------------------------------6---
------------------------------------------------------------
Добавлено: 23.07.2015
Другие материалы по этой песне:
  • Аккорды и текст

Страница создана 23.07.2015
http://primanota.ru/love-and-death/bruises-chords.htm
Привет, Гость.
Предлагаем пройти революционный курс по гитаре.
Подарок от PrimaNota.Ru, забирай!