PrimaNota.ru - самый крупный в мире бесплатный архив песенных текстов, аккордов, табулатур и нот


love a - Freibad - бас-таба, видео

Регистрация Запомнить меня
Войти через:  Facebook Google Twitter Vk Yandex Mail.ru

love a - Freibad - бас-таба, видео

Печатать
Просмотров: 54
-------------------------------------------------------------------------------
                             FREIBAD - Love A
-------------------------------------------------------------------------------
Tabbed by: MetalDaetlaev
E-mail: MarvinHCoburg@yahoo.de

Tuning: EADG (Standard)

Intro/Verse 1

G|----------------------------|
D|----------------------------|
A|----------------------------|    x8
E|-3-3--3-3-3--3-3-3--3-3-3/6-|

Bridge

G|-----------------|
D|-----------------|
A|-----------------|    
E|-13-13-13--9-9-9-|

Verse 2

G|----------------------------|
D|----------------------------|
A|----------------------------|    x4
E|-3-3--3-3-3--3-3-3--3-3-3/6-|

Pre-Chorus 1

G|---------------------------------|
D|---------------------------------|
A|---------------------------------|
E|-8-8-8-8-8-8-8-8-8-8-8-8-8-8-8-8-|

Chorus 1

G|------------------------------------------------------------------------------|
D|------------------------------------------------------------------------------|
A|------------------------------------------------------------------------------|    x3
E|-11-11-11-11-11-11-11-11/13-13-13-13-13-13-13-13-8-8-8/11-11-11-8-8-8/11-11-11|

Verse 3

G|----------------------------|
D|----------------------------|
A|----------------------------|    x4
E|-3-3--3-3-3--3-3-3--3-3-3/6-|


Pre-Chorus 2

G|---------------------------------|
D|---------------------------------|
A|---------------------------------|
E|-8-8-8-8-8-8-8-8-8-8-8-8-8-8-8-8-|

Chorus 2

G|------------------------------------------------------------------------------|
D|------------------------------------------------------------------------------|
A|------------------------------------------------------------------------------|    x4
E|-11-11-11-11-11-11-11-11/13-13-13-13-13-13-13-13-8-8-8/11-11-11-8-8-8/11-11-11|

Outro

G|-------------------------------------------------------------------------|
D|-------------------------------------------------------------------------|
A|-------------------------------------------------------------------------|
E|-11-11-11-11-11-11-11-11/13-13-13-13-13-13-13-13-8-8-8/11-11-11-8-8-8/11-|


| /  slide up
| \  slide down
| h  hammer-on
| p  pull-off
| ~  vibrato
| +  harmonic
| x  Mute note
===============================================================================
Добавлено: 21.06.2016
Другие материалы по этой песне:
  • Аккорды и текст

Страница создана 21.06.2016
http://primanota.ru/love-a/freibad-chords.htm
Привет, Гость.
Предлагаем пройти революционный курс по гитаре.
Подарок от PrimaNota.Ru, забирай!