PrimaNota.ru - самый крупный в мире бесплатный архив песенных текстов, аккордов, табулатур и нот


Lovage - Stroker Ace - текст песни, таба, бас-таба, видео

Регистрация Запомнить меня
Войти через:  Facebook Google Twitter Vk Yandex Mail.ru

Lovage - Stroker Ace - текст песни, таба, бас-таба, видео

Печатать
Просмотров: 201
Уроки эстрадного вокала в Санкт-Петербурге
Song:           Stroker Ace
Artist:         Lovage
Instrument:     Guitar
Transcribed by: Sandro Brincher (www.brincher.com.br)
Scale: G# minor
Tunning: standard

This is the guitar solo, which is actually the main guitar part in the whole song.


Guitar
     S  S  E.  E.   S  S  E.  E.      S  S  E.  E.   T S.  T S.  S  T E  T  
E||--9-11-12----------------------|----------------------------------------|
B||-------------------11-12-------|-----11-12-------12----12----12/11------|
G||----------------13-------------|--13------------------------------------|
D||-------------------------------|----------------------------------------|
A||-------------------------------|----------------------------------------|
E||-------------------------------|----------------------------------------|


Horns part (Chord: C# minor)
If you want to fool around with some guitar chords, try this one using the 
horns rhythm pattern (with a lot of feeling!):

     Q     S.E  T  S  S S  S.E.  T    Q     S.E  T  S  S S  S.E.  T  
E||--------9-------9--9----9-------|--------9-------9--9----9-------|
B||--------9-------9--9----9-------|--------9-------9--9----9-------|
G||--------9-------9--9----9-------|--------9-------9--9----9-------|
D||-------11------11-11---11-------|-------11------11-11---11-------|
A||--------------------------------|--------------------------------|
E||--------------------------------|--------------------------------|


Duration Legend
---------------
W - whole
H - half
Q - quarter
E - 8th
S - 16th
T - 32nd
X - 64th
. - note dotted

Tablature Legend
----------------
x/y - Slide from note x to y.
Добавлено: 11.07.2012
Вам также может быть интересно:
Другие материалы по этой песне:

Страница создана 21.02.2012
http://primanota.ru/lovage/stroker-ace-chords.htm
Привет, Гость.
Предлагаем пройти революционный курс по гитаре.
Подарок от PrimaNota.Ru, забирай!