PrimaNota.ru - самый крупный в мире бесплатный архив песенных текстов, аккордов, табулатур и нот


Louisa M R Stead - Tis So Sweet To Trust In Jesus - таба, видео

Регистрация Запомнить меня
Войти через:  Facebook Google Twitter Vk Yandex Mail.ru

Louisa M R Stead - Tis So Sweet To Trust In Jesus - таба, видео

Печатать
Просмотров: 18
Авторы музыки: William James Kirkpatrick, Louisa Stead

-------------------------------------------------------------------------------
                   Tis so sweet to trust in Jesus - Louisa M R Stead
-------------------------------------------------------------------------------
Tabbed by:
E-mail:                      NO CAPO
key of G
Tuning:E-A-D-G-B-e

e|---------------------------------------------------------------------------|
B|--0---------------------------------0---3----0--0------------0-------------|
G|-----2---0------------0---------0---0---0----0--0---0----2-------2---0-----|
D|--0----------4----2------2--0---0------------------------0---0-------------|
A|-----3---2---5----3---3--3--2-----------------------4------------3---2-----|
E|---------------------------------------------------------------------------|
   tis s sweet to trust in Jesus just to take Him at His word just to rest 
e|---------------------------------------------------------------------------|
B|-----------------------0---------------------------------------------------|
G|-------0-----------0------------2-----0--------0---------------------------|
D|--4-2--------2-0-------0----2---2-----0----4---0---------------------------|
A|--5-3--3-----3-2---2--------3--------------5-------------------------------|
E|---------------------------------------------------------------------------|
   upon His promise just to know thus saith the Lord 
e|---------------------------------------------------------------------------|
B|------0-3---3-0----------0--------0---3-----3-----0----------------0-------|
G|------0-0---0-0---2--0---0----2---0---0-----0-----0----2---0---2------2----|
D|------------------4--2--------4------------------------0-------0---0-------|
A|-----------------------------------------------------------4----------3----|
E|---------------------------------------------------------------------------|
chorus Jesus Jesus how I trust Him how i've proved him o'er and o'er Jesus
e|---------------------------------------------------------------------------|
B|--------1----------------0-------------------------------------------------|
G|--0-------------------0-----------2----0--------0--------------------------|
D|----0---2--2-----2-0-----0----2---2----0----4---0--------------------------|
A|--2-2------3-----3-2--2-------3-------------5------------------------------|
E|---------------------------------------------------------------------------|
   Jesus precious Jesus o for grace to trust him more



************************************

| /   slide up
| \   slide down
| h   hammer-on
| p   pull-off
| ~   vibrato
| +   harmonic
| x   Mute note
| b   Bend
| pb  Pre-bend
| br  Bend release
| pbr Pre-bend release
| brb Bend release bend

************************************
Добавлено: 26.12.2015
Другие материалы по этой песне:
  • Аккорды и текст

Страница создана 26.12.2015
http://primanota.ru/louisa-m-r-stead/tis-so-sweet-to-trust-in-jesus-chords.htm
Привет, Гость.
Предлагаем пройти революционный курс по гитаре.
Подарок от PrimaNota.Ru, забирай!