PrimaNota.ru - самый крупный в мире бесплатный архив песенных текстов, аккордов, табулатур и нот


Louis London - Hardly Hear You - таба, видео

Регистрация Запомнить меня
Войти через:  Facebook Google Twitter Vk Yandex Mail.ru

Louis London - Hardly Hear You - таба, видео

Печатать
Просмотров: 48
-------------------------------------------------------------------------------
                             Hardly Hear You - Louis London
-------------------------------------------------------------------------------
Tabbed by: Nick

Tuning: Standard EADGBe

e|---------------------------------------------------------------------------|
B|--------7---77-----7---77------8---8-----8---8-----------------------------|
G|---------------------------------------------------------------------------|
D|------7---7------7---7-------9---9------9---9------------------------------|
A|---------------------------------------------------------------------------|
E|---------------------------------------------------------------------------|

e|------9----99----9----99-----7----77----7----77----------------------------|
B|---------------------------------------------------------------------------|
G|----9---9------9---9-------7---7------7---7--------------------------------|
D|---------------------------------------------------------------------------|
A|---------------------------------------------------------------------------|
E|---------------------------------------------------------------------------|

e|-------10----1010----10----1010-----12----1212----12----1212---------------|
B|---------------------------------------------------------------------------|
G|----11---11-------11----11-------12---12------12-----12--------------------|
D|---------------------------------------------------------------------------|
A|---------------------------------------------------------------------------|
E|---------------------------------------------------------------------------|

e|------9----99----9----99-----7----77----7----77----------------------------|
B|---------------------------------------------------------------------------|
G|----9---9------9---9-------7---7------7---7--------------------------------|
D|---------------------------------------------------------------------------|
A|---------------------------------------------------------------------------|
E|---------------------------------------------------------------------------|
Добавлено: 30.12.2015
Другие материалы по этой песне:
  • Аккорды и текст

Страница создана 30.12.2015
http://primanota.ru/louis-london/hardly-hear-you-chords.htm
Привет, Гость.
Предлагаем пройти революционный курс по гитаре.
Подарок от PrimaNota.Ru, забирай!