PrimaNota.ru - самый крупный в мире бесплатный архив песенных текстов, аккордов, табулатур и нот


Louis-jean Cormier - Montagne Russe - аккорды и текст, видео

Регистрация Запомнить меня
Войти через:  Facebook Google Twitter Vk Yandex Mail.ru

Louis-jean Cormier - Montagne Russe - аккорды и текст, видео

Печатать
Просмотров: 113
Montagne Russe
Louis-jean Cormier
--------------------------------------
Fait par L'affaire Est Ketchup dans le
câdre de sa vidéo tutoriel de cette
même chanson. 
Lien de la vidéo :
https://youtu.be/sQeQQ-U7AFU
--------------------------------------
Voir la vidéo ci-dessus pour connaître
les différentes version que je vous ai
préparer! Des tabs pour vous aider ce
trouve à la fin de cette page!
--------------------------------------
----------------------------
Accords à connaitre :
Am - G - C - E - Dm - F
----------------------------
Intro :
Am - G - C - E (X2)
----------------------------

Am                 G        C              E    
Si c'est vrai qu'on a seulement une vie, à vivre
Am               G      C               E
Aujourd'hui j'la trouve vraiment dur, à suivre

F              G        C       F              Dm     C   G
J'aurais voulu qu'on se prête au jeu sans s'en mordre les doigts
F              G       C         F
J'aurais voulu t'aimer tellement mieux
F         Dm     C    G         
Mais t'as tout ce que j'ai, pas

Am - G - C - E 
Am - G - C - E 
F - G - C - F
Dm - C - G
F - G - C - F
Dm - C - G


Am                  G     C                       E  
Si c'est vrai qu'le temps arrange les choses, les doutes

Am                 G           C              E  
Tu fais quoi quand on t'presse de choisir, ta route

F              G        C       F                Dm         G
J'aurais voulu qu'on se prête au jeu sans qu'nos cœurs se mélanges
F              G       C         F
J'aurais voulu t'aimer tellement mieux
F       Dm C     G           
Mais tu perdrais aux, changes

Am - G - C - E 
Am - G - C - E 
F - G - C - F
Dm - C - G
F - G - C - F
Dm - C - G

Am                 G               C                    E  
Si c'est vrai qu'l'amour c'est une montagne russe, sans fin
Am               G       C                 E
Aujourd'hui j'me demande comment sauter du train

F              G        C       F                Dm C  G
J'aurais voulu qu'on se prête au jeu qu'on se fasse du bien
F              G       C         F
J'aurais voulu t'aimer tellement mieux
F       Dm C     G   
Mais tu mérites plus, point.

Am - G - C - E 
Am - G - C - E 
F - G - C - F
Dm - C - G
F - G - C - F
Dm - C - G

---------------------------------------
Tabs additionnels pour les visionneurs de vidéo de ma chaîne! 
(Voir ma vidéo sur Youtube ~ Lien au haut de la page!)

Partie 1
Version 2
A        \G       \C
------------------------------------
------1-------0-------1-------------
------2-------0-------0-------------
----2---2---0---0---2---------------
-0----------------3-----------------
----------3-------------------------


Partie 2
Version 2

F       \G       \C     \F
--------------------------1---------
-----1-------0-------1----1---------
-----2-------0-------0----2---------
---3---3---0---0---2---2--3---------
-----------------3--------3---------
-1-------3----------------1---------

Dm       \C      \G
-----1-------------3----------------
-----3-------1-----0----------------
---2---2-----0-----0----------------
-0---------2---2---0----------------
---------3---------2----------------
-------------------3----------------
Добавлено: 18.09.2015
Другие материалы по этой песне:
  • Аккорды и текст

Страница создана 18.09.2015
http://primanota.ru/louis-jean-cormier/montagne-russe-chords.htm
Привет, Гость.
Предлагаем пройти революционный курс по гитаре.
Подарок от PrimaNota.Ru, забирай!