PrimaNota.ru - самый крупный в мире бесплатный архив песенных текстов, аккордов, табулатур и нот


Louis Armstrong - Azalea - таба, видео

Регистрация Запомнить меня
Войти через:  Facebook Google Twitter Vk Yandex Mail.ru

Louis Armstrong - Azalea - таба, видео

Печатать
Просмотров: 54
-----------------------------------------------------------------
    Azalea - Louis Armstrong & The Duke Ellington Orchestra
-----------------------------------------------------------------

Tabbed By : Aeonoptic
e-mail: aeonoptic@gmail.com

Tuning: EADGBe

I believe the progression to be something in the realm of this:

Intro:
| F | F# | F | F# |

Verse:
||: F | F# | G /// C7 | //// | F // Dm7 | Dm7 | G7 // C7 | F // C7 :||

Bridge:
| Bb // A | Bb // A | Bb // A | Bb // F | Dm7 // G7 | Dm7 // G7 | C7 / F / A7 / Dm7 |
| G7 / Dm7 / Db7 / C7 | 

Verse:
| F | F# | G /// C7 | //// | F // Dm7 | Dm7 | G7 // C7 | F // C7 | 


  F                F#                G          C7             F         Dm7
E|----------------|-----------------|----------------|--------|---------------|-------------|
B|----------------|-----------------|----------------|--------|---11-10-8-----|---10-10-----|
G|10-10--9-9-10-10|10-10--9-9--10-10|10-10---7--10/13|10p9\7~~|-----------10-7|10---------10|
D|----------------|-----------------|----------------|--------|10-------------|-------------|
A|----------------|-----------------|----------------|--------|---------------|-------------|
E|----------------|-----------------|----------------|--------|---------------|-------------|
 
  G7    C7 F       C7 F                F#                G           C7                         
E|--------|----------|----------------|-----------------|-----------------|--------|
B|--------|----------|----------------|-----------------|-----------------|--------|
G|7--7----|9--7~~~--9|10-10--9-9-10-10|10-10--9-9--10-10|10-10~---7--10/13|10p9\7~~|
D|--------|----------|----------------|-----------------|-----------------|--------|
A|--------|----------|----------------|-----------------|-----------------|--------|
E|--------|----------|----------------|-----------------|-----------------|--------|

  F         Dm7                 G7     C7 F     C7             Bb           A Bb                    A
E|---------------|-------------|---------|--------------------|--------------|------------------------|
B|---11-10-8-----|---10-10---10|---------|--------------------|--------------|------------------------|
G|-----------10-7|10-----------|9--7-7~--|----7--10~-----10-11|12---12-10-12-|---10-11-12--12-10-12---|
D|10-------------|-------------|---------|10----------12------|--------------|12----------------------|
A|---------------|-------------|---------|--------------------|--------------|------------------------|
E|---------------|-------------|---------|--------------------|--------------|------------------------|

  Bb     A           Bb              F     Dm7                 G7  Dm7             G7
E|------------------|10~~-----------------|-----------------------|------------------|
B|----------------10|-------13h15p13------|------10---------------|------10-10-10~---|
G|10-12--12-10-12---|----------------12-10|10-12-----10-----------|9-10--------------|
D|------------------|---------------------|-------------12-9------|------------------|
A|------------------|---------------------|------------------12---|------------------|
E|------------------|---------------------|-----------------------|------------------|

  C7  F   A7  Dm7  G7  Dm7 Db7 C7
E|----------------|--------------|
B|----13----------|10--10--10----|
G|10----------9-10|------------12|
D|--------12------|--------------|
A|----------------|--------------|
E|----------------|--------------|

  F                F#                G              C7             F         Dm7
E|----------------|-----------------|--------------------|--------|---------------|------------|
B|----------------|-----------------|--------------------|--------|---11-10-8-----|---10-10----|
G|10-10--9-9-10-10|10-10--9-9--10-10|10-10-10\7--7--10/13|10p9\7~~|-----------10-7|10---------7|
D|----------------|-----------------|--------------------|--------|10-------------|------------|
A|----------------|-----------------|--------------------|--------|---------------|------------|
E|----------------|-----------------|--------------------|--------|---------------|------------|

  G7        C7   F         C7
E|--------------|------------|
B|----10-13-10~~|10----------|
G|10------------|----------10|
D|--------------|----10h12---|
A|--------------|------------|
E|--------------|------------|

The piano solo is nigh impossible to transcribe for guitar, but essentially just plays
an ornamented version of the melody

| /  slide up
| \  slide down
| h  hammer-on
| p  pull-off
| ~  vibrato
| +  harmonic
| x  Mute note
Добавлено: 03.03.2016
Другие материалы по этой песне:
  • Аккорды и текст

Страница создана 03.03.2016
http://primanota.ru/louis-armstrong/azalea-chords.htm
Привет, Гость.
Предлагаем пройти революционный курс по гитаре.
Подарок от PrimaNota.Ru, забирай!