PrimaNota.ru - самый крупный в мире бесплатный архив песенных текстов, аккордов, табулатур и нот


Loudwater - My Way - таба, видео

Регистрация Запомнить меня
Войти через:  Facebook Google Twitter Vk Yandex Mail.ru

Loudwater - My Way - таба, видео

Печатать
Просмотров: 63
Tablature - Stephen McHattie

Loudwater - My Way  "Glitter" Published 2000



Drop D Tuning

-------------------------------------------------------------------
-------------------------------------------------------------------
-12-15-14-15--10-15-14-15--9-15-14-15--8-7-8-10-12-10-8-5----------
-12-15-14-15--10-15-14-15--9-15-14-15--8-7-8-10-12-10-8-5---------- Twice
-10-13-12-13---8-13-12-13--7-13-12-13--6-5-6--8-10--8-6-3----------
-------------------------------------------------------------------

Lick1
----------------------------------------------------------
----------------------15br~~~~~---------------------------
-------12-15-14----12-----------15-14-15-12---------------
-12-15----------15----------------------------------------
----------------------------------------------------------
----------------------------------------------------------

FAST
------------------------------------------------------------
------------------------------------------------------------
-----------15-14/12-----------------------------------------
-12--14/15-----------15-12h15p12----------------------------
---------------------------------15p13h15-12h13p12--10~~~~--
------------------------------------------------------------

Verse
-----------------------------------------------------
-----------------------------------------------------
-----------------------------------------------------
-12-10-8-7-------------------------------------------
-12-10-8-7-------------------------------------------
-10--8-6-5-------------------------------------------


Main Riff (Live out your wildest dreams)
--------------------15---------------------------15-----------
-------15----13---------------------15----13------------------
-12-14----14----14-----14-----12-14----14----14-----14--------
--------------------------------------------------------------
--------------------------------------------------------------
--------------------------------------------------------------
4 Times Through Last Time Stop
			 HERE
---------------------15---|----------------------15-----
--------15----13----------|----------15----13-----------
-----12----12----12-----14|----12-14----14----14----14--
-15-----------------------|-----------------------------
--------------------------|-----------------------------
--------------------------|-----------------------------

and play
------------------------------------------------------
------------------------------------------------------
---11-------------------------------------------------
---11-------------------------------------------------
---9--------------------------------------------------
------------------------------------------------------

Lick2
----------------------------------------------------------------
----------15-15br--13-12----------------------------------------
-12h14/15----------------15-14-12b~~~-12------------------------
-----------------------------------------15-13h15p12-12h13p12---
----------------------------------------------------------------
----------------------------------------------------------------

------------------------------------------------------------------
------------------------------------------------------------------
-----------------12~~~--------------------------------------------
-10-10h12/13h15---------------------------------------------------
------------------------------------------------------------------
------------------------------------------------------------------

Bridge into Solo
-----------------------------------------------------
-----------------------------------------------------
-----------------------------------------------------
--5-5/7/9-9/8/9-9---5-5/7/9-9/8/9-9------------------
--5-5/7/9-9/8/9-9---5-5/7/9-9/8/9-9------------------
--3-3/5/7-7/6/7-7---3-3/5/7-7/6/7-7------------------

Solo
-15~~~--15-17-18-17p15p13--17-----------------------------------------
------------------------------13--------------------------------------
---------------------------------15-12----12-15-12-----------14-------
---------------------------------------15-----------12h14/15----------
----------------------------------------------------------------------
----------------------------------------------------------------------

-------------------------------------------------------------20~~~~~---
-----------------------------------------------------------------------
-------------------------------15-17-15--15~~--------------------------
-15p14\12----------------------15-17-15-------15-13-12-13-12-----------
----------15--13-12h1312-10----13-15-13--------------------------------
-----------------------------------------------------------------------

----------------------------------------------------------------17~~~--
-----------------------------------------------------------------------
--15-13\12---------------------------------12-14-15-14-12--------------
-----------15-14\12---------------------------------------15-13--------
--------------------15-13-12h13p12--10~~~------------------------------
-----------------------------------------------------------------------

---------------------------------------------------21~~~-----------------
-------------------------------------------------------------------------
-------------------------------------------------------------------------
-------------------------------------------------------------------------
-15-12-13-12------------12-15-13-13----12-------15-----------------------
--------------15-13~-15-------------15----15-13--------------------------

-------------------------------------------12-12-14b~~-14-12-14-15-17-19~~~----
----------------------------------14h15p14-------------------------------------
-------------------------12h14h15----------------------------------------------
----------------12h13h15-------------------------------------------------------
-------12h13h15----------------------------------------------------------------
-14h15-------------------------------------------------------------------------

-17-15-14-15-14-12----12-------------------15b~~~~~~~~~---------
-------------------15----12~~-----------------------------------
-------------------------------14p12h14p12----------------------
----------------------------------------------------------------
----------------------------------------------------------------
----------------------------------------------------------------



Ending

An-i-mal An-i-mal An-i-mal An-i-mal An-i-mal....
--------------------------------------------------------
-13-------13------13-------13-------13------------------
-12-------12------12-------12-------12------------------
---15-15----15-15----15-15----15-15---15-15-------------
--------------------------------------------------------
--------------------------------------------------------

--------------------------------------------------------
--------------------------------------------------------
--------------------------------------------------------
-12-10-10-12-10-10-12-10-10-12-10-10-12-12-10-10-5------
-12-10-10-12-10-10-12-10-10-12-10-10-12-12-10-10-5------
-10--8--8-10--8--8-10--8--8--8--8--8-10-10--8--8-3------

     
Добавлено: 25.11.2013
Другие материалы по этой песне:
  • Аккорды и текст

Страница создана 30.09.2013
http://primanota.ru/loudwater/my-way-chords.htm
Привет, Гость.
Предлагаем пройти революционный курс по гитаре.
Подарок от PrimaNota.Ru, забирай!