PrimaNota.ru - самый крупный в мире бесплатный архив песенных текстов, аккордов, табулатур и нот


Loudon Wainwright - Unrequited - таба, видео

Регистрация Запомнить меня
Войти через:  Facebook Google Twitter Vk Yandex Mail.ru

Loudon Wainwright - Unrequited - таба, видео

Печатать
Просмотров: 71
		   Author/Artist: Loudon Wainwright III
Title: Unrequited to the Nth Degree
Album: Unrequited
Transcribed by: Ramsay Wallace
Email: RamsayW1@aol.com

The chords go B7 C G Dsus4 D, B7 C G D G The tab below shows the =
alternating Bass strings & the connecting notes that Loudon picks out


B7      x2   C     C/G            G                 Dsus4 D
---1-1--1-1-|--0-0--0-0- 0-0|-------3-------3-3----|--3---2-
---0-0--0-0-|--1-1--1-1- 1-1|-------0-----0-0-0----|--3---3-
---2-2--2-2-|--0-0--0-0--0-0|-------0--0h2--0-0----|--2---2-
---1-1--1-1-|--2-2--2-2--2-2|-------0-------0-0---0|--0---0-
-2----------|-3---------3---|-3-2---2-2--------3-2-|--0---0-
-------2----|------3--------|-----3----------------|--x------
die...........long...............sorry...........wrong.......

B7      x2   C     C/G         G         D      G
---1-1--1-1-|--0-0--0-0--0-0|-------3--3--2--2-|-------
---0-0--0-0-|--1-1--1-1--1-1|-------0--0--3--3-|-------
---2-2--2-2-|--0-0--0-0--0-0|-------0--0--2--2-|--0----
---1-1--1-1-|--2-2--2-2--2-2|-------0--0----0--|----0--
-2----------|-3---------3---|-3-2---2-2--0-----|-----2-
-------2----|------3--------|-----3------------|-3----3
sorry.......bad............after................glad


     
Добавлено: 24.11.2013
Другие материалы по этой песне:
  • Аккорды и текст

Страница создана 24.11.2013
http://primanota.ru/loudon-wainwright/unrequited-chords.htm
Привет, Гость.
Предлагаем пройти революционный курс по гитаре.
Подарок от PrimaNota.Ru, забирай!