PrimaNota.ru - самый крупный в мире бесплатный архив песенных текстов, аккордов, табулатур и нот


Loudness - Who Knows - текст песни, таба, видео

Регистрация Запомнить меня
Войти через:  Facebook Google Twitter Vk Yandex Mail.ru

Loudness - Who Knows - текст песни, таба, видео

Печатать
Просмотров: 104
-----------------------------------------------------------------------
                             Who Knows - Loudness
-----------------------------------------------------------------------
Tabbed by: h1lander
Email:

Tuning: Standard

e|---------------------------------------------------------------------|
B|---------------------------------------------------------------------|
G|----------------------------------------------2-2--------------------|
D|-----7-7--5-5---4--5-4-4-4--5-5--3-3----------2-2--------------------|
A|------5-5--5-5---5------5-5--3-3--3-3---0-2-3-0-0--------------------|
E|---------------------------------------------------------------------|
  P.M. |-4-||-4-| |-4--| |-4-||-4-| |-4-|   Play Twice
e|---------------------------------------------------------------------|
B|---------------------------------------------------------------------|
G|-----------------------------5-4-------------------------------------|
D|----------4-----5-----4------5-4-------------------------------------|
A|-5--5-5-5---5-5---5-5---5-5--3-2-------------------------------------|
E|---------------------------------------------------------------------|
   P.M.---| Play Twice
e|---------------------------------------------------------------------|
B|---------------------------------------------------------------------|
G|---------------------------------------------------------------------|
D|---------------------------------------------------------------------|
A|---------4-----5----4-----5--4---------------------------------------|
E|-5-5-5-5---5-5---5-5--5-5--5---5-------------------------------------|
   P.M.--|
e|---------------------------------------------------------------------|
B|-4-------4-------4---4-------4-------4--3-------3-------3---3--------|
G|-5-------5-------5---5-------5-------5--4-------4-------4---4--------|
D|-5-------5-------5---5-------5-------5--4-------4-------4---4--------|
A|-3-3-3-3-3-3-3-3-3-3-3-3-3-3-3-3-3-3-3--2-2-2-2-2-2-2-2-2-2-2--------|
E|---------------------------------------------------------------------|

e|---------------------------------------------------------------------|
B|-4-------4-------4---4-------4----6----------------------------------|
G|-5-------5-------5---5-------5----7----------------------------------|
D|-5-------5-------5---5-------5----7----------------------------------|
A|-3-3-3-3-3-3-3-3-3-3-3-3-3-3-3----5----------------------------------|
E|---------------------------------------------------------------------|

e|----------------------------------3----------------------------------|
B|----------------------------------3----------------------------------|
G|----------------------------------0----------------------------------|
D|-2--2--2-4--------2-3-2-----------0----------------------------------|
A|-0--0--0-2-----3-2------3-2-3-2---X----------------------------------|
E|---3--3----0-2-----------------0--3----------------------------------|
BASS SOLO
e|---------------------------------------------------------------------|
B|---------------------------------------------------------------------|
G|---------------------------------------------------------------------|
D|-7-6--7vvv--7-6-7vvv---7---6vvv----7-6-7vv--7-6-7vvv-7---6vvv--------|
A|-----7-----7---7-----7---7-------7----7----7---7----7--7-------------|
E|---------------------------------------------------------------------|

e|---------------------------------------------------------------------|
B|---------------------------------------------------------------------|
G|---------------------------------------------------------------------|
D|-5-4-4vvv---5-4-4vvv--5---4vvv-3-2-2vvv-3-2-2vvv--3--2vvv------------|
A|----5-----5----5-----5--5---------3----3---3----3---3----------------|
E|---------------------------------------------------------------------|

e|---------------------------------------------------------------------|
B|------------------------2-2------------------------------------------|
G|-2----------------------4-4-2----------------------------------------|
D|-2--------------------------2----------T7/9--------------------------|
A|-0-0-0-0-0-0-0-0-0-0-0-0----0------0h2-------------------------------|
E|---------------------------------------------------------------------|
                               Solo: |-----------

************************************

| /   slide up
| \   slide down
| h   hammer-on
| p   pull-off
| ~   vibrato
| +   harmonic
| x   Mute note
| b   Bend
| pb  Pre-bend
| br  Bend release
| pbr Pre-bend release
| brb Bend release bend
| T   tap

************************************
Добавлено: 01.04.2012
Другие материалы по этой песне:
  • Аккорды и текст

Страница создана 01.04.2012
http://primanota.ru/loudness/who-knows-chords.htm
Привет, Гость.
Предлагаем пройти революционный курс по гитаре.
Подарок от PrimaNota.Ru, забирай!