PrimaNota.ru - самый крупный в мире бесплатный архив песенных текстов, аккордов, табулатур и нот


Loudness - Like Hell - текст песни, таба, видео

Регистрация Запомнить меня
Войти через:  Facebook Google Twitter Vk Yandex Mail.ru

Loudness - Like Hell - текст песни, таба, видео

Печатать
Просмотров: 174
------------------------------------------------------------------------
                             Like Hell - Loudness
------------------------------------------------------------------------
Tabbed by: h1lander
Email:

Tuning: Standard

e|---------------------------------------------------------------------|
B|---------------------------------------------------------------------|
G|--2-5-4-5vvv---2-5-4-5vvv------------------------------3-2-0---------|
D|-2----------2-2-----------2-5-4-5vvv---2-5-4-5vvv-3-2-0-----3-2------|
A|-------------------------2----------2-2-----------------------0-3-2--|
E|----------------------------------------------------------------1-0--|
   P.M.
e|---------------------------------------------------------------------|
B|---------------------------------------------------------------------|
G|---------------------------------7-----7-----7-----------------------|
D|---------------------------------7-----7-----7-----------------------|
A|-----5----3-----5-----3-3vvv-----5-----5-----5-----------------------|
E|-0-0---0-0--0-0---0-0--------0-0---0-0---0-0---0-0-0-----------------|
   P.M.                       “So many times
e|---------------------------------------------------------------------|
B|---------------------------------------------------------------------|
G|-------5-5-------5-------5------------3-3-------3-----3-------2------|
D|-5-4---5-5-------5-------5-------3-2--3-3-------3-----3-------0------|
A|----5--3-3-3-3-3-3-3-3-3-3-3-3-3----3-1-1-1-1-1-1-1-1-1-1-1-1---3-2--|
E|----------------------------------------------------------------1-0--|

e|---------------------------------------------------------------------|
B|---------------------------------------------------------------------|
G|---------------------------------------------------------------------|
D|-------------------------------2-2-4-5-------------------------------|
A|-----5-----3-----5-----3-3vvv--0-0-2-3-3-3-3-3-3-3-3-3-3-3-3-3-------|
E|-0-0---0-0---0-0---0-0-----------------------------------------------|
                                 Play twice
e|---------------------------------------------------------------------|
B|---------------------------------------------------------------------|
G|---------------------------------------------------7\----------------|
D|-5-5-5-7-------------------------7-7-7-7-----------7\----------------|
A|-2-2-3-5-5-5-5-5-5-5-5-5-5-5-5-5-4-4-4-5-5-5-5-5-5-5-----------------|
E|---------------------------------------------------------------------|

e|---------------------------------------------------------------------|
B|---------------------------------------------------------------------|
G|----------------------------------------2-4-5-7----------------------|
D|-2-2----------------5-4--------2-2------2-4-5-7----------------------|
A|-2-2---------------5-----------2-2------0-2-3-5----------------------|
E|-0-0-0-0-0-0-0--0-3------------0-0-0-0-0-----------------------------|
   Like Hell, I'm gonna do it.   Like Hell


************************************

| /   slide up
| \   slide down
| h   hammer-on
| p   pull-off
| ~   vibrato
| +   harmonic
| x   Mute note
| b   Bend
| pb  Pre-bend
| br  Bend release
| pbr Pre-bend release
| brb Bend release bend

************************************
Добавлено: 24.06.2012
Другие материалы по этой песне:

Страница создана 03.03.2012
http://primanota.ru/loudness/like-hell-chords.htm
Привет, Гость.
Предлагаем пройти революционный курс по гитаре.
Подарок от PrimaNota.Ru, забирай!