PrimaNota.ru - самый крупный в мире бесплатный архив песенных текстов, аккордов, табулатур и нот


Louder Space - Physical Girl - таба, видео

Регистрация Запомнить меня
Войти через:  Facebook Google Twitter Vk Yandex Mail.ru

Louder Space - Physical Girl - таба, видео

Печатать
Просмотров: 63
Song: Physical Girl
Band: Louder Space
Album: Signs of Life - EP

LouderSpace.com
http://www.facebook.com/LouderSpaceBand

Tablature written by: Clayton Daly (cdaly91)



Intro
   E                                F#m
e|--------------------------------|-----------------------------------------|
B|-9--------9------9--------9-----|-10---------10-------12p10-------10------|
G|------9-------9-------9-------9-|-------11---------11---------9---------9-|
D|----9-------9-------9-------9---|----11---------11---------11--------11---|
A|-7------7--------7------7-------|-9--------9----------9---------9---------|
E|--------------------------------|-----------------------------------------|

   D                                A  Hold
e|--------------------------------|------------|
B|-7--------7------7h8------7-----|-5----------|
G|------7-------7-------7-------7-|-6----------|
D|----7-------7-------7-------7---|------------|
A|-5------5--------5------5-------|-7----------|
E|--------------------------------|------------|

Verse 1 Part 1
   E      F#m      D      A
e|--------9---9-----------5--5---|
B|-9--9---10--10---7--7---5--5---|
G|-9--9---11--11---7--7---6--6---|
D|-9--9---11--11---7--7---7--7---|
A|-7--7---9---9----5--5---7--7---|
E|-------------------------------|X4

Verse 1 Part 2
   E       F#m     D       A
e|-0--0----2--2----2--2----0--0--|
B|-0--0----2--2----3--3----2--2--|
G|-1--1----2--2----2--2----2--2--|
D|-2--2----4--4----0--0----2--2--|
A|-2--2----4--4------------0--0--|
E|-0--0----2--2------------------|X4

Chorus 1
   A             E             F#m           D
e|-5--5--5--5------------------9--9--9--9----------------|
B|-5--5--5--5----9--9--9--9----10-10-10-10---7--7--7--7--|
G|-6--6--6--6----9--9--9--9----11-11-11-11---7--7--7--7--|
D|-7--7--7--7----9--9--9--9----11-11-11-11---7--7--7--7--|
A|-7--7--7--7----7--7--7--7----9--9--9--9----5--5--5--5--|
E|-------------------------------------------------------|

   A             E             F#m           D
e|-5--5--5--5------------------9--9--9--9----10-10-10-10-|
B|-5--5--5--5----9--9--9--9----10-10-10-10---10-10-10-10-|
G|-6--6--6--6----9--9--9--9----11-11-11-11---11-11-11-11-|
D|-7--7--7--7----9--9--9--9----11-11-11-11---12-12-12-12-|
A|-7--7--7--7----7--7--7--7----9--9--9--9----12-12-12-12-|
E|-------------------------------------------------------|


Guitar Solo (Backing Guitar is same as verse 1)

   E                F#m               D               A
e|---------------------------------|-------------------------------------|
B|-17--17-17-17--17-17--17-17--17--|--17-17-17-17--17-17--17-17--17--17--|
G|-14--14-14-14--14-16--14-14--14--|--------14-14--14-16--14-14--14--16--|
D|---------------------------------|--14h16------------------------------|
A|---------------------------------|-------------------------------------|
E|---------------------------------|-------------------------------------|
   E                        F#m                D               A
e|-------------------------------------------|---------------------------|
B|-15^17-17^15-13-15-13-----13-----------13--|--13-----------------------|
G|----------------------14-----14--12h14-----|-----12-12-14-14-12~~~~----|
D|-------------------------------------------|---------------------------|
A|-------------------------------------------|---------------------------|
E|-------------------------------------------|---------------------------|

Verse 2 part 1
   Hold Chords
   E    F#m  D    A
e|-0----2----2----0--|
B|-0----2----3----2--|
G|-1----2----2----2--|
D|-2----4---------2--|
A|-2----4---------0--|
E|-0----2------------|X2

Verse 2 part 2
   Strum Chords
   E       F#m     D       A
e|-0--0----2--2----2--2----0--0--|
B|-0--0----2--2----3--3----2--2--|
G|-1--1----2--2----2--2----2--2--|
D|-2--2----4--4----0--0----2--2--|
A|-2--2----4--4------------0--0--|
E|-0--0----2--2------------------|X2

Chorus 2
   A             E             F#m           D
e|-0--0--0--0----0--0--0--0----2--2--2--2----2--2--2--2--|
B|-2--2--2--2----0--0--0--0----2--2--2--2----3--3--3--3--|
G|-2--2--2--2----1--1--1--1----2--2--2--2----2--2--2--2--|
D|-2--2--2--2----2--2--2--2----4--4--4--4----0--0--0--0--|
A|-0--0--0--0----2--2--2--2----4--4--4--4----0--0--0--0--|
E|---------------0--0--0--0----2--2--2--2----------------|X2

   A let ring
e|-0-----------|
B|-2-----------|
G|-2-----------|
D|-2-----------|
A|-0-----------|
E|-------------|

Listen to the song to determine the strumming pattern, and enjoy! :)
Добавлено: 23.09.2013
Другие материалы по этой песне:
  • Аккорды и текст

Страница создана 23.09.2013
http://primanota.ru/louder-space/physical-girl-chords.htm
Привет, Гость.
Предлагаем пройти революционный курс по гитаре.
Подарок от PrimaNota.Ru, забирай!