PrimaNota.ru - самый крупный в мире бесплатный архив песенных текстов, аккордов, табулатур и нот


Louden Swain - Help You - аккорды и текст, видео

Регистрация Запомнить меня
Войти через:  Facebook Google Twitter Vk Yandex Mail.ru

Louden Swain - Help You - аккорды и текст, видео

Печатать
Просмотров: 210
Help You
Louden Swain
-------------------------------------------------------------------------------
                           Help You - Louden Swain
-------------------------------------------------------------------------------
Tabbed by: MapsieToo
Capo III

Intro

    C                   Am                  F7M/C                      C                        
e|--0----0-----3---------0---0-----3------------0---0-----0-0----------0-----------------------|
B|--1------3\5---5/3--1--1-----3\5---5/3--1-----1-----1h3-----3p1------1-----------------------|
G|--0--------------------2----------------------2-----------------2p0--0---------0--0h2p0------|
D|--2--------------------2----------------------3----------------------2----2--------------2p0-|
A|--3--------------------0----------------------3----------------------3-----------------------|
E|--x--------------------x---------------------------------------------x-----------------------|

              G
        e|----3-------------------------------------------------------------------------|
        B|----0----0h1p0----------------------------------------------------------------|
1st     G|----0------------2p0----------------------------------------------------------|
ending  D|----0-------------------------------------------------------------------------|
        A|----2-------------------------------------------------------------------------|
        E|----3-------------------------------------------------------------------------|

              G
        e|----3-------------------------------------------------------------------------|
        B|----0----0h1p0----------------------------------------------------------------|
2nd     G|----0-----------2p0-----------------------------------------------------------|
ending  D|----0----------------2p0------------------------------------------------------|
        A|----2-------------------------------------------------------------------------|
        E|----3-------------------------------------------------------------------------|

C                               Am
Looks like you're just waking up
F7M/C                           C
You think the circles will disappear
           G
But they don't
C
They wanna walk
                      
But you're not trying it
Am
They wanna talk

But you're not buying it
F7M/C                                  C
You could say one thing to take it back
           G - 
But you won't

F7M/C            C
You can dream it went a different way
Am                   G
Close your eyes and fly the lie away
F7M/C         C
Rewrite the ending of the play
Am               G
Take a shot and plot your heart away

[Intro]

C                                  Am
The belle has finally left the ball
F7M/C                        C        G
Still waiting for that other shoe to fall
C
Some basic rules
       
But you don't follow them
Am
Gaggle of fools

But you don't bother them
F7M/C                             C
You make it all up as you go along
              G
But you're not going anywhere

F7M/C            C
You can dream it went a different way
Am                   G
Close your eyes and fly the lie away
F7M/C         C
Rewrite the ending of the play
Am               G
Take a shot and plot your heart away
F7M/C            C
I could be the canvas and the clay
Am             G        
If you let me through
F7M/C             C
Stick around for just another day
Am             G
And help me help you

[ C Am F7M/C   G ] x 4

F7M/C            C
You can dream it went a different way
Am                   G
Close your eyes and fly the lie away
F7M/C         C
Rewrite the ending of the play
Am               G
Take a shot and plot your heart away
F7M/C            C
I could be the canvas and the clay
Am             G        
If you let me through
F7M/C             C
Stick around for just another day
Am             G
And help me help you


************************************

| /   slide up
| \   slide down
| h   hammer-on
| p   pull-off
| ~   vibrato
| +   harmonic
| x   Mute note
| b   Bend
| pb  Pre-bend
| br  Bend release
| pbr Pre-bend release
| brb Bend release bend

************************************
Добавлено: 22.07.2015
Другие материалы по этой песне:
  • Аккорды и текст

Страница создана 22.07.2015
http://primanota.ru/louden-swain/help-you-chords.htm
Привет, Гость.
Предлагаем пройти революционный курс по гитаре.
Подарок от PrimaNota.Ru, забирай!