PrimaNota.ru - самый крупный в мире бесплатный архив песенных текстов, аккордов, табулатур и нот


Louden Swain - Bandaged Hand - бас-таба, видео

Регистрация Запомнить меня
Войти через:  Facebook Google Twitter Vk Yandex Mail.ru

Louden Swain - Bandaged Hand - бас-таба, видео

Печатать
Просмотров: 147
-------------------------------------------------------------------------------
                             Bandaged Hand - Louden Swain
-------------------------------------------------------------------------------
Tabbed by: Savannah (savandwich)
E-mail: savandwich@gmail.com

Tuning: Standard
This is one of my favourites off Sky Alive. Well. I think all of them are my favourites actually. In fact, I
can't even pick a favourite out of all the songs. Oh well. here is the bass tab. Treat it as more of a 
guideline for what to play- the song is pretty much made up of those riffs. Also this may be a slightly
simplified version of what Borja actually plays. In my defence, I worked the bass out on an acoustic guitar.
Live long and prosper!

(0:00)
G|---------------------------------------------------------------------------|
D|---------------------------------------------------------------------------|
A|------0--4/5--0-4/5--0--4/5--0--4/5--0--0--4/5--0-4/5--0--4/5--0--4/5------|
E|---------------------------------------------------------------------------|
   
(0:13)
G|---------------------------------------------------------------------------|
D|---------------------------------------------------------------------------|
A|-------------------------------------0--4/5--0-4/5--0--4/5--0--4/5--0------|
E|-----0--3/4--0--3/4--0--3/4--0-3/4-----------------------------------------|

(0:51)
G|---------------------------------------------------------------------------|
D|---------------------------------------------------------------------------|
A|---0-0-0-0-0-0-0-0-5-5-5-5-5-5-5-5-0-0-0-0-0-0-0-0-5-5-5-5-5-5-5-5---------|
E|---------------------------------------------------------------------------|

(1:02)
G|---------------------------------------------------------------------------|
D|---------------------------------------------------------------------------|
A|--0-0--4/5--0-0--4/5--0-0--4/5--0-0--4/5-----------------------------------|
E|---------------------------------------------------------------------------|

(1:07)
G|-----------------------------------------------------------------------------------------|
D|-----------------------------------------------------------------------------------------|
A|--0-2-4-5-5-5-5-5-5-5-5-5-5-5-5-4-2-0-0-0-0-0-0-0-0-0-0-0-0-2-4-5-5-5-5-5-5-5-5-5-5-5-5--|
E|-----------------------------------------------------------------------------------------|

(1:19)
G|---------------------------------------------------------------------------|
D|---------------------------------------------------------------------------|
A|-4-2-0-0-0-0---------------------------------------------------------------|
E|---------------0--0-0--0-0--0-0--0-0--0-0--0-0--0--0-0--0-0--0-0--0-0--0-0-|
                    (just play E for the whole part. BASSically. ha...sorry.)


G|---------------------------------------------------------------------------|
D|---------------------------------------------------------------------------|
A|---0--4/5--0--4/5--0--4/5--------------------------------------------------|
E|---------------------------------------------------------------------------|




| /  slide up
| \  slide down
| h  hammer-on
| p  pull-off
| ~  vibrato
| +  harmonic
| x  Mute note
===============================================================================
Добавлено: 22.07.2015
Другие материалы по этой песне:
  • Аккорды и текст

Страница создана 22.07.2015
http://primanota.ru/louden-swain/bandaged-hand-chords.htm
Привет, Гость.
Предлагаем пройти революционный курс по гитаре.
Подарок от PrimaNota.Ru, забирай!