PrimaNota.ru - самый крупный в мире бесплатный архив песенных текстов, аккордов, табулатур и нот


Lou Reed - Street Hassle - текст песни, бас-таба, видео

Регистрация Запомнить меня
Войти через:  Facebook Google Twitter Vk Yandex Mail.ru

Lou Reed - Street Hassle - текст песни, бас-таба, видео

Печатать
Просмотров: 209
Уроки эстрадного вокала в Санкт-Петербурге
LOU REED - STREET HASSLE
ALBUM: STREET HASSLE (1978)
BASSIST: FERNANDO SAUNDERS

VERSE

E -5-5---5------------5-5---5-----------5-5---5-----------------------|
A -----------7---4-------------7---4------------7---4--5-5-5-5-5-5--4-|
D --------------------------------------------------------------------|
G --------------------------------------------------------------------|

AND BACK TO THE START...

E -5-5---5------------5-5---5-----------5-5---5-----------------------|
A -----------7---4-------------7---4------------7---4--5-5-5-5-5-5--4-|
D --------------------------------------------------------------------|
G --------------------------------------------------------------------|

SOLO (6:50)

E ---0----0------0----0------0---0-------5-4-2-4--|
A -----7---7-7-----7---7-7-----7---7-7------------|
D ------------------------------------------------|
G ------------------------------------------------|


KEEP HIGH THE HIGH...

LOU REED'S THE BEST ARTIST OF EVERY TIME! FUCKIN LEONARDO DA VINCI
PLEASE RATE SOME BASS TABS OF LOU REED SONGS
PLEASE!

TABBED BY JAH WOBBLE IS GOD
Добавлено: 26.04.2012
Другие материалы по этой песне:
  • Аккорды и текст

Страница создана 26.04.2012
http://primanota.ru/lou-reed/street-hassle-chords.htm
Привет, Гость.
Предлагаем пройти революционный курс по гитаре.
Подарок от PrimaNota.Ru, забирай!