PrimaNota.ru - самый крупный в мире бесплатный архив песенных текстов, аккордов, табулатур и нот


Lou Rawls - You'll Never Find Another Love Like Mine - текст песни, таба, бас-таба, видео

Регистрация Запомнить меня
Войти через:  Facebook Google Twitter Vk Yandex Mail.ru

Lou Rawls - You'll Never Find Another Love Like Mine - текст песни, таба, бас-таба, видео

Печатать
Просмотров: 91
Авторы: Kenneth Gamble, Leon Huff

YOU'LL NEVER FIND ANOTHER LOVE LIKE MINE

As recorded by Lou Rawls
(From the 1976 Album ALL THINGS IN TIME)

Words and Music by Kenny Gamble & Leon Huff

Transcribed by Slowhand


Gtr I (E A D G B E) - 'Bobby Eli - Electric Guitar'


 Intro
  Q=107
  N.C.
 2/4     4/4
  Gtr I (Clean El. Gtr.)
  q  Q    a W          +H.      +E  S S   W          +H.      E S S
|-------|------------|------------------|----------|-----------------|
|-------|------------|------------------|----------|-----------------|
|-------|-7s9--------|-(9)------(9)-7s9s|=7--------|-(7)--------6s7s=|
|----7--|------------|------------------|----------|-----------------|
|-9-----|------------|------------------|----------|-----------------|
|-------|------------|------------------|----------|-----------------|


  E E E S S +H       +H.      E S S   E E E S S +H       +H.      Q
|------------------|----------------|------------------|-------------||
|------------------|----------------|------------------|-------------||
|-6----------------|----------------|------------------|-------------||
|---7-7------------|------------9p7-|-9----------------|-------------||
|-------7-9-(9)----|-(9)------------|---9-9p7-9-(9)----|-(9)---------||
|------------------|----------------|------------------|-------------||


   1st & 3rd Verses
    N.C.
    E. S E E +Q.   E   E. S +E  S S Q  Q    E. S E E +H       +H.      Q
||-----------------7-|----7-(7)-----7-----|-----------------|--------------|
||o-7--7---7-(7)-----|-7--------7-7-------|-7--7---7-(7)----|-(7)----------|
||--6--6---4-(4)-----|--------------------|-6--6---6-(6)----|-(6)----------|
||-------------------|--------------------|-----------------|--------------|
||o------------------|--------------------|-----------------|--------------|
||-------------------|--------------------|-----------------|--------------|


  E. S E E +H       H    +E  E Q    W          H.      Q
|-----------------|----------7----|----------|-7-----------||
|-7--7---7-(7)----|-7----(7)---7--|-7--------|-7-----------||
|-6--6---6-(6)----|-4----(4)------|-6--------|-7-----------||
|-----------------|---------------|----------|-------------||
|-----------------|---------------|----------|-------------||
|-----------------|---------------|----------|-------------||


 2nd, 4th & 5th Verses
  $
  N.C.
  E. S E E +Q.   E   E. S +E  S S Q  Q    E. S E E +H       +H.      Q
|----------------7-|----7-(7)-----7-----|-----------------|-------------|
|-7--7---7-(7)-----|-7--------7-7-------|-7--7---7-(7)----|-(7)---------|
|-6--6---4-(4)-----|--------------------|-6--6---6-(6)----|-(6)---------|
|------------------|--------------------|-----------------|-------------|
|------------------|--------------------|-----------------|-------------|
|------------------|--------------------|-----------------|-------------|


  E. S E E +H       H    +E  E Q    W          H.      Q
|-----------------|----------7----|----------|-7-----------||
|-7--7---7-(7)----|-7----(7)---7--|-7--------|-7-----------||
|-6--6---6-(6)----|-4----(4)------|-6--------|-7-----------||
|-----------------|---------------|----------|-------------||
|-----------------|---------------|----------|-------------||
|-----------------|---------------|----------|-------------||


 Pre-Chorus
  D/G
  e S s E e E E S S E   e S s E e E E S S E   e S s E e E E S S E
|---------------------|---------------------|----------------------|
|-7---7---7---7-7-7---|-7---7---7---7-7-7---|-7---7---7---7-7-7----|
|-7---7---7---7-7-7---|-7---7---7---7-7-7---|-7---7---7---7-7-7----|
|-5---5---5---5-5-5---|-5---5---5---5-5-5---|-5---5---5---5-5-5----|
|---------------------|---------------------|----------------------|
|---------------------|---------------------|----------------------|


  1.
                 Dmaj7      D6         Dmaj7      D6
  e e e E H      W          W          W          W
|--------------|----------|----------|----------|-------||
|-7-7-7--------|-7--------|-7--------|-7--------|-7----o||
|-7-7-7--------|-6--------|-4--------|-6--------|-4-----||
|-5-5-5--------|-4--------|-4--------|-4--------|-4-----||
|--------------|-5--------|-5--------|-5--------|-5----o||
|--------------|----------|----------|----------|-------||


                 Chorus
  2.,D.S.
                  D/G
  e e e E H       e S s E e E E S S E   e S s E e E E S S E
|--------------||---------------------|---------------------|
|-7-7-7--------||-7---7---7---7-7-7---|-7---7---7---7-7-7---|
|-7-7-7--------||-7---7---7---7-7-7---|-7---7---7---7-7-7---|
|-5-5-5--------||-5---5---5---5-5-5---|-5---5---5---5-5-5---|
|--------------||---------------------|---------------------|
|--------------||---------------------|---------------------|


  e S s E e E E S S E   e S s E e E E S S E
|---------------------|---------------------|
|-7---7---7---7-7-7---|-7---7---7---7-7-7---|
|-7---7---7---7-7-7---|-7---7---7---7-7-7---|
|-5---5---5---5-5-5---|-5---5---5---5-5-5---|
|---------------------|---------------------|
|---------------------|---------------------|


  e S s E e E E S S E   e S s E e E E S S E
|---------------------|---------------------|
|-7---7---7---7-7-7---|-7---7---7---7-7-7---|
|-7---7---7---7-7-7---|-7---7---7---7-7-7---|
|-5---5---5---5-5-5---|-5---5---5---5-5-5---|
|---------------------|---------------------|
|---------------------|---------------------|


To Coda                                               D.S. al Coda
  Dmaj7      D6         D/G
  W          W          e S s E e E E S S E   e S s E e E E S S E
|----------|----------|---------------------|-----------------------||
|-7--------|-7--------|-7---7---7---7-7-7---|-7---7---7---7-7-7-----||
|-6--------|-4--------|-7---7---7---7-7-7---|-7---7---7---7-7-7-----||
|-4--------|-4--------|-5---5---5---5-5-5---|-5---5---5---5-5-5-----||
|-5--------|-5--------|---------------------|-----------------------||
|----------|----------|---------------------|-----------------------||


              Out-Chorus
  &
  D6           D/G
  W            e S s E e E E S S E   e S s E e E E S S E
|----------||----------------------|---------------------|
|-7--------||o-7---7---7---7-7-7---|-7---7---7---7-7-7---|
|-4--------||--7---7---7---7-7-7---|-7---7---7---7-7-7---|
|-4--------||--5---5---5---5-5-5---|-5---5---5---5-5-5---|
|-5--------||o---------------------|---------------------|
|----------||----------------------|---------------------|


  e S s E e E E S S E   e S s E e E E S S E   e S s E e E E S S E
|---------------------|---------------------|----------------------|
|-7---7---7---7-7-7---|-7---7---7---7-7-7---|-7---7---7---7-7-7----|
|-7---7---7---7-7-7---|-7---7---7---7-7-7---|-7---7---7---7-7-7----|
|-5---5---5---5-5-5---|-5---5---5---5-5-5---|-5---5---5---5-5-5----|
|---------------------|---------------------|----------------------|
|---------------------|---------------------|----------------------|


                        Dmaj7      D6
  e S s E e E E S S E   W          W
|---------------------|----------|-------||
|-7---7---7---7-7-7---|-7--------|-7----o||
|-7---7---7---7-7-7---|-6--------|-4-----||
|-5---5---5---5-5-5---|-4--------|-4-----||
|---------------------|-5--------|-5----o||
|---------------------|----------|-------||


Duration Legend
---------------
W - whole; H - half; Q - quarter; E - 8th; S - 16th; T - 32nd; X - 64th; a - acciaccatura
+ - note tied to previous; . - note dotted; .. - note double dotted
Uncapitalized letters represent notes that are staccato (1/2 duration)
Irregular groupings are notated above the duration line
Duration letters will always appear directly above the note/fret number it represents the
duration for.  Duration letters with no fret number below them represent rests.  Multi-
bar rests are notated in the form Wxn, where n is the number of bars to rest for.  Low
melody durations appear below the staff

Tablature Legend
----------------
 h   - hammer-on
 p   - pull-off
 b   - bend
 pb  - pre-bend
 r   - bend release (if no number after the r, then release immediately)
 /\  - slide into or out of (from/to "nowhere")
 s   - legato slide
 S   - shift slide
  - natural harmonic
[n]  - artificial harmonic
n(n) - tapped harmonic
 ~   - vibrato
 tr  - trill
 T   - tap
 TP  - trem. picking
 PM  - palm muting
\n/  - tremolo bar dip; n = amount to dip
 \n  - tremolo bar down
 n/  - tremolo bar up
/n\  - tremolo bar inverted dip
 =   - hold bend; also acts as connecting device for hammers/pulls
 <>  - volume swell (louder/softer)
 x   - on rhythm slash represents muted slash
 o   - on rhythm slash represents single note slash

Misc Legend
-----------
 |  - bar
||  - double bar
||o - repeat start
o|| - repeat end
*|  - double bar (ending)
 :  - bar (freetime)
 $  - Segno
 &  - Coda
Tempo markers -  = BPM(8/16=s8/s16), where s8 = swing 8ths, s16 = swing 16ths

Добавлено: 27.06.2016
Вам также может быть интересно:
Другие материалы по этой песне:

Страница создана 06.03.2012
http://primanota.ru/lou-rawls/youll-never-find-another-love-like-mine-chords.htm
Привет, Гость.
Предлагаем пройти революционный курс по гитаре.
Подарок от PrimaNota.Ru, забирай!