PrimaNota.ru - самый крупный в мире бесплатный архив песенных текстов, аккордов, табулатур и нот


Lotus Plaza - Remember Our Days - таба, видео

Регистрация Запомнить меня
Войти через:  Facebook Google Twitter Vk Yandex Mail.ru

Lotus Plaza - Remember Our Days - таба, видео

Печатать
Просмотров: 113
Авторы музыки: Lotus Plaza
Авторы текста: Lotus Plaza
=====================================
Artist : Lotus Plaza
Album : Spooky Action at a Distance (2012)
Song : Remember Our Days
=====================================
This is my first tab, enjoy it.
Capo on the 9th fret

Intro:

e-----------------||    -----------------||        
B-----------------||    -----------------||        
G------0-------0--||    -----------------||        
D--0-------0------|| x2 ------2-------2--|| x2  (x4)   
A----2---2---2---2||    --3-------3------||        
E-----------------||    ----1---1---1---1||    

verse:

e-----------------||    -----------------||        
B-----------------||    -----------------||        
G------0-------0--||    -----------------||        
D--0-------0------|| x2 ------2-------2--|| x2   (x2) 
A----2---2---2---2||    --3-------3------||        
E-----------------||    ----1---1---1---1||

e-----------------||    -----------------||        
B-----------------||    -----------------||        
G------0-------0--||    ------0-------0--||        
D--2-------2------|| x2 --4-------4------|| x2   (x2) 
A----3---3---3---3||    ----3---3---3---3||        
E-----------------||    -----------------||

e-----------------||    -----------------||
B-----------------||    -----------------||
G------0-------0--||    ------0-------0--||
D--0-------0------|| x2 --2-------2------|| x2   (x2)
A----2---2---2---2||    ----3---3---3---3||  
E-----------------||    -----------------||

e-----------------||    -----------------||        
B-----------------||    -----------------||        
G------0-------0--||    -----------------||        
D--0-------0------|| x2 ------2-------2--|| x2   (x2) 
A----2---2---2---2||    --3-------3------||        
E-----------------||    ----1---1---1---1||

e-----------------||    -----------------||        
B-----------------||    -----------------||        
G------0-------0--||    ------0-------0--||        
D--2-------2------|| x2 --4-------4------|| x2   (x2) 
A----3---3---3---3||    ----3---3---3---3||        
E-----------------||    -----------------||

e-----------------||    -----------------||
B-----------------||    -----------------||
G------0-------0--||    ------0-------0--||
D--0-------0------|| x2 --2-------2------|| x2   
A----2---2---2---2||    ----3---3---3---3||  
E-----------------||    -----------------||

Bridge:

e-----------------||    -----------------------------------||
B-----------------||    -----------------------------------||
G------0-------0--||    ------0-------0-------0---------0--||
D--0-------0------|| x2 --2-------2-------2---------4------||
A----2---2---2---2||    ----3---3---3---3---3---3/5---5---5||
E-----------------||    -----------------------------------||

e----------------------------------------------------------------||
B----------------------------------------------------------------||
G------0-------0-------0---------0-------0------------0---------0||
D--4-------4-------4---------7-------7----------10---------10----||
A----5---5---5---5---5---5/9---9---9---9---9/12----12---12---12--||
E----------------------------------------------------------------||

Solo: w/tremolo picking

e-----------------------------------||
B--(9)-(8)-(6)-(4)-(6)-(4)-(2)-(1)--||
G-----------------------------------||
D-----------------------------------|| x2
A-----------------------------------||
E-----------------------------------||

and then repeat all again.

http://www.kranky.net/artists/lotusplaza.html
Добавлено: 27.10.2013
Другие материалы по этой песне:
  • Аккорды и текст

Страница создана 27.10.2013
http://primanota.ru/lotus-plaza/remember-our-days-chords.htm
Привет, Гость.
Предлагаем пройти революционный курс по гитаре.
Подарок от PrimaNota.Ru, забирай!