PrimaNota.ru - самый крупный в мире бесплатный архив песенных текстов, аккордов, табулатур и нот


Lotte Kestner - Temperature - таба, видео

Регистрация Запомнить меня
Войти через:  Facebook Google Twitter Vk Yandex Mail.ru

Lotte Kestner - Temperature - таба, видео

Печатать
Просмотров: 191
Tabbed by Mario Carlo Pittalis (mariocarlo2000@hotmail.com)

THE GUITAR TAB BELOW IS DEDICATED TO SARA V....., WITH LOVE.



Acoustic Guitar, (CAPO ON 4TH FRET)

( ) = ghost note



Intro

  Am             Am             G              G
e|---------0----|---------0----|--------------|--------------|
B|-------1------|-------1------|---------0----|---------0----|
G|-----2--------|-----2--------|-------0------|-------0------|
D|---2------(2)-|---2------(0)-|-----0----(0)-|-----0----(0)-|
A|-0------------|-0------------|---2----------|---2----------|
E|--------------|--------------|-3------------|-3------------|

  Am             Am             Bm             Bm
e|---------0----|---------0----|--------------|--------------|
B|-------1------|-------1------|-------3------|-------3------|
G|-----2--------|-----2--------|-----4--------|-----4--------|
D|---2------(2)-|---2------(0)-|---4----------|---4-------(0)|
A|-0------------|-0------------|-2------------|-2------------|
E|--------------|--------------|--------------|--------------|

  Em             Am             G
e|--------------|---------0----|--------------|--------------|
B|---------0----|-------1------|---------0----|---------0----|
G|-------0------|-----2--------|-------0------|-------2------|
D|-----2----(0)-|---2------(0)-|-----0----(0)-|-----0----(0)-|
A|---2----------|-0------------|---2----------|---0----------|
E|-0------------|--------------|-3------------|-2------------|


e|--------------|--------------|--------------|--------------|
B|-------0------|-------0------|-------0------|-------0------|
G|-----0--------|-----2--------|-----0--------|-----2--------|
D|---2-------(0)|---4-------(0)|---2-------(0)|---4----------|
A|-3------------|-2------------|-3------------|-2------------|
E|--------------|--------------|--------------|--------------|


Part I

  Em             Am             G
e|--------------|---------0----|--------------|--------------|
B|---------0----|-------1------|---------0----|---------0----|
G|-------0------|-----2--------|-------0------|-------2------|
D|-----2----(0)-|---2------(0)-|-----0----(0)-|-----0----(0)-|
A|---2----------|-0------------|---2----------|---0----------|
E|-0------------|--------------|-3------------|-2------------|


e|--------------|--------------|--------------|--------------|--------------|
B|-------0------|-------0------|-------0------|-------0------|-------0------|
G|-----0--------|-----2--------|-----0--------|-----2--------|-----2--------|
D|---2-------(0)|---4-------(0)|---2-------(0)|---4----------|---4----------|
A|-3------------|-2------------|-3------------|-2------------|-2------------|
E|--------------|--------------|--------------|--------------|--------------|

  Em             Am             G
e|--------------|---------0----|--------------|--------------|
B|---------0----|-------1------|---------0----|---------0----|
G|-------0------|-----2--------|-------0------|-------2------|
D|-----2----(0)-|---2------(0)-|-----0----(0)-|-----0----(0)-|
A|---2----------|-0------------|---2----------|---0----------|
E|-0------------|--------------|-3------------|-2------------|


e|--------------|--------------|--------------|--------------|
B|-------0------|-------0------|-------0------|-------0------|
G|-----0--------|-----2--------|-----0--------|-----2--------|
D|---2-------(0)|---4-------(0)|---2-------(0)|---4----------|
A|-3------------|-2------------|-3------------|-2------------|
E|--------------|--------------|--------------|--------------|


Part II

  G              G              Bm             Bm
e|--------------|--------------|--------------|--------------|
B|---------0----|---------0----|-------3------|-------3------|
G|-------0------|-------0------|-----4--------|-----4--------|
D|-----0----(0)-|-----0----(0)-|---4----------|---4----------|
A|---2----------|---2----------|-2------------|-2------------|
E|-3------------|-3------------|--------------|--------------|

                                Em             Em
e|---------0----|---------0----|--------------|--------------|
B|-------0------|-------0------|---------0----|---------0----|
G|-----0--------|-----0--------|-------0------|-------0------|
D|---2----------|---2----------|-----2----(0)-|-----2----(0)-|
A|-3------------|-3------------|---2----------|---2----------|
E|--------------|--------------|-0------------|-0------------|

  Am             Am             D              D
e|---------0----|---------0----|---------2----|---------2----|
B|-------1------|-------1------|-------3------|-------3------|
G|-----2--------|-----2--------|-----2--------|-----2----(0)-|
D|---2------(2)-|---2------(2)-|---0----------|---0----------|
A|-0------------|-0------------|-0------------|-0------------|
E|--------------|--------------|--------------|--------------|

  Am             Am             Bm             Bm
e|---------0----|---------0----|--------------|--------------|
B|-------1------|-------1------|-------3------|-------3------|
G|-----2--------|-----2--------|-----4--------|-----4--------|
D|---2----------|---2----------|---4----------|---4-------(0)|
A|-0------------|-0------------|-2------------|-2------------|
E|--------------|--------------|--------------|--------------|

  Em             Am             G
e|--------------|---------0----|--------------|--------------|
B|---------0----|-------1------|---------0----|---------0----|
G|-------0------|-----2--------|-------0------|-------2------|
D|-----2----(0)-|---2------(0)-|-----0----(0)-|-----0----(0)-|
A|---2----------|-0------------|---2----------|---0----------|
E|-0------------|--------------|-3------------|-2------------|


e|--------------|--------------|--------------|--------------|--------------|
B|-------0------|-------0------|-------0------|-------0------|-------0------|
G|-----0--------|-----2--------|-----0--------|-----2--------|-----2--------|
D|---2-------(0)|---4-------(0)|---2-------(0)|---4----------|---4----------|
A|-3------------|-2------------|-3------------|-2------------|-2------------|
E|--------------|--------------|--------------|--------------|--------------|


Repeat Part I & Part II


Part III (Like Part II) Repeat x 5

  G              G              Bm             Bm
e|--------------|--------------|--------------|--------------|
B|---------0----|---------0----|-------3------|-------3------|
G|-------0------|-------0------|-----4--------|-----4--------|
D|-----0----(0)-|-----0----(0)-|---4----------|---4----------|
A|---2----------|---2----------|-2------------|-2------------|
E|-3------------|-3------------|--------------|--------------|

                                Em             Em
e|---------0----|---------0----|--------------|--------------|
B|-------0------|-------0------|---------0----|---------0----|
G|-----0--------|-----0--------|-------0------|-------0------|
D|---2----------|---2----------|-----2----(0)-|-----2----(0)-|
A|-3------------|-3------------|---2----------|---2----------|
E|--------------|--------------|-0------------|-0------------|


On the 5th play like this (just add 'e' string on Bm) and fade...

  G              G              Bm             Bm
e|--------------|--------------|---------2----|---------2----|
B|---------0----|---------0----|-------3------|-------3------|
G|-------0------|-------0------|-----4--------|-----4--------|
D|-----0----(0)-|-----0----(0)-|---4----------|---4----------|
A|---2----------|---2----------|-2------------|-2------------|
E|-3------------|-3------------|--------------|--------------|

                                Em             Em
e|---------0----|---------0----|--------------|--------------|
B|-------0------|-------0------|---------0----|---------0----|
G|-----0--------|-----0--------|-------0------|-------0------|
D|---2----------|---2----------|-----2----(0)-|-----2----(0)-|
A|-3------------|-3------------|---2----------|---2----------|
E|--------------|--------------|-0------------|-0------------|
Добавлено: 01.10.2013
Другие материалы по этой песне:
  • Аккорды и текст

Страница создана 01.10.2013
http://primanota.ru/lotte-kestner/temperature-chords.htm
Привет, Гость.
Предлагаем пройти революционный курс по гитаре.
Подарок от PrimaNota.Ru, забирай!