PrimaNota.ru - самый крупный в мире бесплатный архив песенных текстов, аккордов, табулатур и нот


Lotion - Rock Chick - аккорды и текст, таба, видео

Регистрация Запомнить меня
Войти через:  Facebook Google Twitter Vk Yandex Mail.ru

Lotion - Rock Chick - аккорды и текст, таба, видео

Печатать
Просмотров: 135
Rock Chick
Lotion



From: R09330 
Date: Mon, 4 May 1998 09:06:21 EDT
Subject: l/lotion/rock_chick.crd

Band: Lotion
Album: Nobody's Cool
Song: Rock Chick


Barre Em - C#m - Bm
      C#m
      pick thru Em

Solo:
------------------------------------------------------------------------
------------------------------------------------------------------------
-------------------------12-----10h11--12--------------------------
--7--9--11--7--9--11------7----------------11--9--7--------------
-----------------------------------------------------------10--9--7--
-----------------------------------------------------------------------

  Em  C#m  Bm
--7----4-----2---
--8----5-----3---
--9----6-----4---
--9----6-----4---
--7----4-----2---
--7----4-----2---


Добавлено: 30.11.2013
Другие материалы по этой песне:
  • Аккорды и текст

Страница создана 10.03.2012
http://primanota.ru/lotion/rock-chick-chords.htm
Привет, Гость.
Предлагаем пройти революционный курс по гитаре.
Подарок от PrimaNota.Ru, забирай!