PrimaNota.ru - самый крупный в мире бесплатный архив песенных текстов, аккордов, табулатур и нот


Lostprophets - Lostprophets - текст песни, таба, видео

Регистрация Запомнить меня
Войти через:  Facebook Google Twitter Vk Yandex Mail.ru

Lostprophets - Lostprophets - текст песни, таба, видео

Печатать
Просмотров: 75
                                 LAST TRAIN HOME
                           As recorded by Lostprophets
                      (From the 2004 Album START SOMETHING)

Words and Music by Lostprophets
Arranged by Lostprophets
Transcribed by L. Gaze, M. Lewis, and A. Perlmutter



I see this is already tabbed (a pretty good tab Monkey) but thought I'd offer another version with some slight variants.  Firstly, I in no way take any credit for this tab with the exception of posting it.  This tab is comprised of the Adam Perlmutter transcription in the May 2004 issue of Guitar One Magazine and the Lostprophets "How I Wrote A Hit Single!" article found in the May 2004 issue of Guitar World Magazine.  The tab based on the Perlmutter transcription and then modifide with the slight differences in the Lee Gaze/Mike Lewis article.  So, all props go out to Lee Gaze, Mike Lewis, and Adam Perlmutter.



Gtr I (D A D G B E) - 'Clean'
Gtr II (D A D G B E) - 'Dist.'
Gtr III (D A D G B E) - 'Dist.'
Gtr IV (C G C F A D) - 'Dist.'

 Intro
  Q=102
 4/4
  Gtr I
   S  S  E  S  S  E  S  S  E  S  S  E    S  S  E  S  S  E  S  S  E  S  S  E
|-------------------------------------|-------------------------------------|
|-------------------------------------|-------------------------------------|
|-------16-------16-------16-------16-|-------16-------16-------16-------16-|
|----17-------17-------17-------17----|----17-------17-------17-------17----|
|-15-------15-------15-------15-------|-------------------------------------|
|-------------------------------------|-14-------14-------14-------14-------|


  S  S  E S  S  E S  S  E S  S  E   S  S  E S  S  E S  S  E S  S  E
|---------------------------------|---------------------------------|
|---------------------------------|---------------------------------|
|------16------16------16------16-|------14------14------14------14-|
|---17------17------17------17----|---17------17------17------17----|
|---------------------------------|---------------------------------|
|-0-------0-------0-------0-------|-0-------0-------0-------0-------|


    Gtr I
     S  S  E    S  S  E    S  S  E    S  S  E
||----------------------------------------------|
||o---------------------------------------------|
||--------16---------16---------16---------16---|
||-----17---------17---------17---------17------|
||o-15---------15---------15---------15---------|
||----------------------------------------------|
|
|   Gtr II
|    S  E    S  S  E    S  S  E    S  S  E    S
||----------------------------------------------|
||o---------------------------------------------|
||---5--5----5--5--5----5--5--5----5--5--5------|
||---5--5----5--5--5----5--5--5----5--5--5----0-|
||o--3--3----3--3--3----3--3--3----3--3--3----0-|
||--------------------------------------------0-|


   S  S  E    S  S  E    S  S  E    S  S  E
|----------------------------------------------|
|----------------------------------------------|
|-------16---------16---------16---------16----|
|----17---------17---------17---------17-------|
|----------------------------------------------|
|-14---------14---------14---------14----------|
|
|  S  E    S  S  E    S  S  E    S  S  E    S
|----------------------------------------------|
|----------------------------------------------|
|----------------------------------------------|
|--2--2----2--2--2----2--2--2----2--2--2----2--|
|--2--2----2--2--2----2--2--2----2--2--2----2--|
|--2--2----2--2--2----2--2--2----2--2--2----2--|


  S  S  E   S  S  E   S  S  E   S  S  E
|-----------------------------------------|
|-----------------------------------------|
|------16--------16--------16--------16---|
|---17--------17--------17--------17------|
|-----------------------------------------|
|-0---------0---------0---------0---------|
|
| S  S  S S S  S  S S S  S  S S S  S  S S
|-----------------------------------------|
|-----------------------------------------|
|-----------------------------------------|
|-0--0----0-0--0----0-0--0----0-0--0----0-|
|-0--0----0-0--0----0-0--0----0-0--0----0-|
|-0--0----0-0--0----0-0--0----0-0--0----0-|


  S  S  E   S  S  E   S  S  E   S  S  E
|------------------------------------------||
|-----------------------------------------o||
|------14--------14--------14--------14----||
|---17--------17--------17--------17-------||
|-----------------------------------------o||
|-0---------0---------0---------0----------||
|
| S  S  S S S  S  S S S  S  S S S  S  S S
|------------------------------------------||
|-----------------------------------------o||
|------------------------------------------||
|-0--0----0-0--0----0-0--0----0-0--0--x-x--||
|-0--0----0-0--0----0-0--0----0-0--0--x-x-o||
|-0--0----0-0--0----0-0--0----0-0--0--x-x--||


   Verse
    Gtr I
     E  E  S  S  S  S  +S   S  E  S  S  S  S
||-------------------------------------------|
||o------------------------------------------|
||--16-16-16-16-16-16-(16)-16-16-16-16-16-16-|
||--17-17-17-17-17-17-(17)-17-17-17-17-17-17-|
||o-15-15-15-15-15-15-(15)-15-15-15-15-15-15-|
||-------------------------------------------|


   E  E  S  S  S  S  +S   S  E  S  S  S  S
|-------------------------------------------|
|-------------------------------------------|
|-16-16-16-16-16-16-(16)-16-16-16-16-16-16--|
|-17-17-17-17-17-17-(17)-17-17-17-17-17-17--|
|--x--x--x--x--x--x-------x--x--x--x--x--x--|
|-14-14-14-14-14-14-(14)-14-14-14-14-14-14--|


   E  E  S  S  S  S  +S   E  S  S  S  S  S
|------------------------------------------|
|------------------------------------------|
|-16-16-16-16-16-14-(14)-14-14-14-14-14-14-|
|-17-17-17-17-17-17-(17)-17-17-17-17-17-17-|
|-12-12-12-12-12-12-(12)-12-12-12-12-12-12-|
|-12-12-12-12-12-12-(12)-12-12-12-12-12-12-|


   E  E  S  S  S  S  +S   E  S  S  S  S  S
|------------------------------------------|
|------------------------------------------|
|-16-16-16-16-16-14-(14)-14-14-14-14-14-14-|
|-17-17-17-17-17-17-(17)-17-17-17-17-17-17-|
|-12-12-12-12-12-12-(12)-12-12-12-12-12-12-|
|-12-12-12-12-12-12-(12)-12-12-12-12-12-12-|


   E  E  S  S  S  S  +S   S  E  S  S  S  S
|------------------------------------------|
|------------------------------------------|
|-16-16-16-16-16-16-(16)-16-16-16-16-16-16-|
|-17-17-17-17-17-17-(17)-17-17-17-17-17-17-|
|-15-15-15-15-15-15-(15)-15-15-15-15-15-15-|
|------------------------------------------|


   E  E  S  S  S  S  +S   S  E  S  S  S  S
|------------------------------------------|
|------------------------------------------|
|-16-16-16-16-16-16-(16)-16-16-16-16-16-16-|
|-17-17-17-17-17-17-(17)-17-17-17-17-17-17-|
|--x--x--x--x--x--x-------x--x--x--x--x--x-|
|-14-14-14-14-14-14-(14)-14-14-14-14-14-14-|


   E  E  S  S  S  S  +S   E  S  S  S  S  S
|------------------------------------------|
|------------------------------------------|
|-16-16-16-16-16-14-(14)-14-14-14-14-14-14-|
|-17-17-17-17-17-17-(17)-17-17-17-17-17-17-|
|-12-12-12-12-12-12-(12)-12-12-12-12-12-12-|
|-12-12-12-12-12-12-(12)-12-12-12-12-12-12-|


   E  E  S  S  S  S  +S   E  S  S  S  S  S
|------------------------------------------|
|------------------------------------------|
|-16-16-16-16-16-14-(14)-14-14-14-14-14-14-|
|-17-17-17-17-17-17-(17)-17-17-17-17-17-17-|
|-12-12-12-12-12-12-(12)-12-12-12-12-12-12-|
|-12-12-12-12-12-12-(12)-12-12-12-12-12-12-|


   E  E  S  S  S  S  +S   S  S  S  +S   S  S  S
|-----------------------------------------------|
|-----------------------------------------------|
|-16-16-16-16-16-16-(16)-16-16-16-(16)-16-16-16-|
|-17-17-17-17-17-17-(17)-17-17-17-(17)-17-17-17-|
|-15-15-15-15-15-15-(15)-15-15-15-(15)-15-15-15-|
|-----------------------------------------------|


   E  E  S  S  S  S  +S   S  S  S  +S   S  S  S
|-----------------------------------------------|
|-----------------------------------------------|
|-16-16-16-16-16-16-(16)-16-16-16-(16)-16-16-16-|
|-17-17-17-17-17-17-(17)-17-17-17-(17)-17-17-17-|
|--x--x--x--x--x--x-------x--x--x-------x--x--x-|
|-14-14-14-14-14-14-(14)-14-14-14-(14)-14-14-14-|


   E  E  S  S  S  S  +S   S  S  S  +S   S  S  S
|-----------------------------------------------|
|-----------------------------------------------|
|-14-14-14-14-14-14-(14)-14-14-19-(19)-19-14-14-|
|-17-17-17-17-17-17-(17)-17-17-17-(17)-17-17-17-|
|--x--x--x--x--x--x-------x--x--x-------x--x--x-|
|--0--0--0--0--0--0--(0)--0--0--0--(0)--0--0--0-|


   E  E  S  S  S  S  +S   S  S  S  +S   S  S  S
|-----------------------------------------------|
|-----------------------------------------------|
|-14-14-14-14-14-14-(14)-14-14-19-(19)-19-14-14-|
|-17-17-17-17-17-17-(17)-17-17-17-(17)-17-17-17-|
|--x--x--x--x--x--x-------x--x--x-------x--x--x-|
|--0--0--0--0--0--0--(0)--0--0--0--(0)--0--0--0-|


   E  E  S  S  S  S  +S   S  S  S  +S   S  S  S
|-----------------------------------------------|
|-----------------------------------------------|
|-16-16-16-16-16-16-(16)-16-16-16-(16)-16-16-16-|
|-17-17-17-17-17-17-(17)-17-17-17-(17)-17-17-17-|
|-15-15-15-15-15-15-(15)-15-15-15-(15)-15-15-15-|
|-----------------------------------------------|


   E  E  S  S  S  S  +S   S  S  S  +S   S  S  S
|-----------------------------------------------|
|-----------------------------------------------|
|-16-16-16-16-16-16-(16)-16-16-16-(16)-16-16-16-|
|-17-17-17-17-17-17-(17)-17-17-17-(17)-17-17-17-|
|--x--x--x--x--x--x-------x--x--x-------x--x--x-|
|-14-14-14-14-14-14-(14)-14-14-14-(14)-14-14-14-|


   E  E  S  S  S  S  +S   S  S  S  +S   S  S  S
|-----------------------------------------------|
|-----------------------------------------------|
|-14-14-14-14-14-14-(14)-14-14-19-(19)-19-14-14-|
|-17-17-17-17-17-17-(17)-17-17-17-(17)-17-17-17-|
|--x--x--x--x--x--x-------x--x--x-------x--x--x-|
|--0--0--0--0--0--0--(0)--0--0--0--(0)--0--0--0-|


   E  E  S  S  S  S  +S   S  S  S  +S   S  S  S
|-----------------------------------------------|
|-----------------------------------------------|
|-14-14-14-14-14-14-(14)-14-14-19-(19)-19-14-14-|
|-17-17-17-17-17-17-(17)-17-17-17-(17)-17-17-17-|
|--x--x--x--x--x--x-------x--x--x-------x--x--x-|
|--0--0--0--0--0--0--(0)--0--0--0--(0)--0--0--0-|


  Gtr III
   E    S  S  +S   S  S  S  +S   S  S  S  S  S  a  E
|-17---17-17-(17)-17-17-17-(17)-17-17-17-17-17-17s19---|
|--x----x--x-------x--x--x-------x--x--x--x--x--x------|
|-14---14-14-(14)-14-14-14-(14)-14-14-14-14-14-14s16---|
|------------------------------------------------------|
|------------------------------------------------------|
|------------------------------------------------------|
|
| Gtr II
|  S S  S  S   S   S  S  S   S   S  S  S  S  S     S S
|------------------------------------------------------|
|------------------------------------------------------|
|------------------------------------------------------|
|--7-7--7--7---7---7--7--7---7---7--7--7--7--7-----9-9-|
|--7-7--7--7---7---7--7--7---7---7--7--7--7--7-----9-9-|
|--7-7--7--7---7---7--7--7---7---7--7--7--7--7-----9-9-|


   E     S  S  +S   S  S  S  +S   S  S  S  +S   S  a  E
|-15----15-15-(15)-15-15-15-(15)-15-15-15-(15)-15-15s17----|
|--x-----x--x-------x--x--x-------x--x--x-------x--x-------|
|-12----12-12-(12)-12-12-12-(12)-12-12-12-(12)-12-12s14----|
|----------------------------------------------------------|
|----------------------------------------------------------|
|----------------------------------------------------------|
|
|  S  S  S  S   S   S  S  S   S   S  S  S   S   S     S  S
|----------------------------------------------------------|
|----------------------------------------------------------|
|----------------------------------------------------------|
|-10-10-10-10--10--10-10-10--10--10-10-10--10--10----10-10-|
|-10-10-10-10--10--10-10-10--10--10-10-10--10--10----10-10-|
|-10-10-10-10--10--10-10-10--10--10-10-10--10--10----10-10-|


   E    S  S  +S   S  S  S  +S   S  S  S  S  S  a  E
|-10---10-10-(10)-10-10-10-(10)-10-10-10-10-10-10s12---|
|--x----x--x-------x--x--x-------x--x--x--x--x--x------|
|--7----7--7--(7)--7--7--7--(7)--7--7--7--7--7--7s=9---|
|------------------------------------------------------|
|------------------------------------------------------|
|------------------------------------------------------|
|
|  S S  S  S   S   S  S  S   S   S  S  S  S  S  a  S S
|------------------------------------------------------|
|------------------------------------------------------|
|------------------------------------------------------|
|--5-5--5--5---5---5--5--5---5---5--5--5--5--5--5s=7-0-|
|--5-5--5--5---5---5--5--5---5---5--5--5--5--5--5s=7-0-|
|--5-5--5--5---5---5--5--5---5---5--5--5--5--5--5s=7-0-|


  E   S S +S  S S S +S  S S S S S E
|-5---5-5-(5)-5-5-5-(5)-5-5-5-5-5-5----|
|-x---x-x-----x-x-x-----x-x-x-x-x-x----|
|-2---2-2-(2)-2-2-2-(2)-2-2-2-2-2-2----|
|--------------------------------------|
|--------------------------------------|
|--------------------------------------|
|
| S S S S  S  S S S  S  S S S S S S S
|--------------------------------------|
|--------------------------------------|
|--------------------------------------|
|-0-0-0-0--0--0-0-0--0--0-0-0-0-0-0-0--|
|-0-0-0-0--0--0-0-0--0--0-0-0-0-0-0-0--|
|-0-0-0-0--0--0-0-0--0--0-0-0-0-0-0-0--|


   E    S  S  +S   S  S  S  +S   S  S  S  S  S  a  E
|-17---17-17-(17)-17-17-17-(17)-17-17-17-17-17-17s19---|
|--x----x--x-------x--x--x-------x--x--x--x--x--x------|
|-14---14-14-(14)-14-14-14-(14)-14-14-14-14-14-14s16---|
|------------------------------------------------------|
|------------------------------------------------------|
|------------------------------------------------------|
|
|  S S  S  S   S   S  S  S   S   S  S  S  S  S     S S
|------------------------------------------------------|
|------------------------------------------------------|
|------------------------------------------------------|
|--7-7--7--7---7---7--7--7---7---7--7--7--7--7-----9-9-|
|--7-7--7--7---7---7--7--7---7---7--7--7--7--7-----9-9-|
|--7-7--7--7---7---7--7--7---7---7--7--7--7--7-----9-9-|


   E     S  S  +S   S  S  S  +S   S  S  S  +S   S  a  E
|-15----15-15-(15)-15-15-15-(15)-15-15-15-(15)-15-15s17----|
|--x-----x--x-------x--x--x-------x--x--x-------x--x-------|
|-12----12-12-(12)-12-12-12-(12)-12-12-12-(12)-12-12s14----|
|----------------------------------------------------------|
|----------------------------------------------------------|
|----------------------------------------------------------|
|
|  S  S  S  S   S   S  S  S   S   S  S  S   S   S     S  S
|----------------------------------------------------------|
|----------------------------------------------------------|
|----------------------------------------------------------|
|-10-10-10-10--10--10-10-10--10--10-10-10--10--10----10-10-|
|-10-10-10-10--10--10-10-10--10--10-10-10--10--10----10-10-|
|-10-10-10-10--10--10-10-10--10--10-10-10--10--10----10-10-|


  Gtr I
   W
|------------------------------------------------------|
|------------------------------------------------------|
|------------------------------------------------------|
|------------------------------------------------------|
|------------------------------------------------------|
|------------------------------------------------------|
|
| Gtr III
|  E    S  S  +S   S  S  S  +S   S  S  S  S  S  a  E
|-10---10-10-(10)-10-10-10-(10)-10-10-10-10-10-10s12---|
|--x----x--x-------x--x--x-------x--x--x--x--x--x------|
|--7----7--7--(7)--7--7--7--(7)--7--7--7--7--7--7s=9---|
|------------------------------------------------------|
|------------------------------------------------------|
|------------------------------------------------------|
|
| Gtr II
|  S S  S  S   S   S  S  S   S   S  S  S  S  S  a  S S
|------------------------------------------------------|
|------------------------------------------------------|
|------------------------------------------------------|
|--5-5--5--5---5---5--5--5---5---5--5--5--5--5--5s=7-0-|
|--5-5--5--5---5---5--5--5---5---5--5--5--5--5--5s=7-0-|
|--5-5--5--5---5---5--5--5---5---5--5--5--5--5--5s=7-0-|


  W                                        S  S  E  S  S  E  S  S  E  Q
|---------------------------------------|--------------------------------||
|---------------------------------------|--------------------------------||
|---------------------------------------|-------16-------16-------16-----||
|---------------------------------------|----17-------17-------17--------||
|---------------------------------------|-15-------15-------15-------15--||
|---------------------------------------|--------------------------------||
|
| E   S S +S  S S S +S  S S S S S   S S    W
|-5---5-5-(5)-5-5-5-(5)-5-5-5-5-5---5s7-|--------------------------------||
|-x---x-x-----x-x-x-----x-x-x-x-x---x---|--------------------------------||
|-2---2-2-(2)-2-2-2-(2)-2-2-2-2-2---2s4-|--0-----------------------------||
|---------------------------------------|--------------------------------||
|---------------------------------------|--------------------------------||
|---------------------------------------|--------------------------------||
|
| S S S S  S  S S S  S  S S S S S a S S    W
|---------------------------------------|--------------------------------||
|---------------------------------------|--------------------------------||
|---------------------------------------|--------------------------------||
|-5-5-5-5--5--5-5-5--5--5-5-5-5-5-5s7-0-|-10-----------------------------||
|-5-5-5-5--5--5-5-5--5--5-5-5-5-5-5s7-0-|-10-----------------------------||
|-5-5-5-5--5--5-5-5--5--5-5-5-5-5-5s7-0-|-10-----------------------------||


 Chorus
   S  S  E    S  S  E    S  S  E    S  S  E
|---------------------------------------------|
|---------------------------------------------|
|-------16---------16---------16---------16---|
|----17---------17---------17---------17------|
|-15---------15---------15---------15---------|
|---------------------------------------------|
|
|  S  E    S  S  E    S  S  E    S  S  E    S
|---------------------------------------------|
|---------------------------------------------|
|--5--5----5--5--5----5--5--5----5--5--5------|
|--5--5----5--5--5----5--5--5----5--5--5----0-|
|--3--3----3--3--3----3--3--3----3--3--3----0-|
|-------------------------------------------0-|


   S  S  E    S  S  E    S  S  E    S  S  E
|---------------------------------------------|
|---------------------------------------------|
|-------16---------16---------16---------16---|
|----17---------17---------17---------17------|
|---------------------------------------------|
|-14---------14---------14---------14---------|
|
|  S  E    S  S  E    S  S  E    S  S  E    S
|---------------------------------------------|
|---------------------------------------------|
|---------------------------------------------|
|--2--2----2--2--2----2--2--2----2--2--2----2-|
|--2--2----2--2--2----2--2--2----2--2--2----2-|
|--2--2----2--2--2----2--2--2----2--2--2----2-|


  S  S  E   S  S  E   S  S  E   S  S  E
|-----------------------------------------|
|-----------------------------------------|
|------16--------16--------16--------16---|
|---17--------17--------17--------17------|
|-----------------------------------------|
|-0---------0---------0---------0---------|
|
| S  S  S S S  S  S S S  S  S S S  S  S S
|-----------------------------------------|
|-----------------------------------------|
|-----------------------------------------|
|-0--0----0-0--0----0-0--0----0-0--0----0-|
|-0--0----0-0--0----0-0--0----0-0--0----0-|
|-0--0----0-0--0----0-0--0----0-0--0----0-|


  S  S  E   S  S  E   S  S  E   S  S  E
|-----------------------------------------|
|-----------------------------------------|
|------14--------14--------14--------14---|
|---17--------17--------17--------17------|
|-----------------------------------------|
|-0---------0---------0---------0---------|
|
| S  S  S S S  S  S S S  S  S S S  S  S S
|-----------------------------------------|
|-----------------------------------------|
|-----------------------------------------|
|-0--0----0-0--0----0-0--0----0-0--0--x-x-|
|-0--0----0-0--0----0-0--0----0-0--0--x-x-|
|-0--0----0-0--0----0-0--0----0-0--0--x-x-|


   S  S  E    S  S  E    S  S  E    S  S  E
|---------------------------------------------|
|---------------------------------------------|
|-------16---------16---------16---------16---|
|----17---------17---------17---------17------|
|-15---------15---------15---------15---------|
|---------------------------------------------|
|
|  S  E    S  S  E    S  S  E    S  S  E    S
|---------------------------------------------|
|---------------------------------------------|
|--5--5----5--5--5----5--5--5----5--5--5------|
|--5--5----5--5--5----5--5--5----5--5--5----0-|
|--3--3----3--3--3----3--3--3----3--3--3----0-|
|-------------------------------------------0-|


   S  S  E    S  S  E    S  S  E    S  S  E
|---------------------------------------------|
|---------------------------------------------|
|-------16---------16---------16---------16---|
|----17---------17---------17---------17------|
|---------------------------------------------|
|-14---------14---------14---------14---------|
|
|  S  E    S  S  E    S  S  E    S  S  E    S
|---------------------------------------------|
|---------------------------------------------|
|---------------------------------------------|
|--2--2----2--2--2----2--2--2----2--2--2----2-|
|--2--2----2--2--2----2--2--2----2--2--2----2-|
|--2--2----2--2--2----2--2--2----2--2--2----2-|


  S  S  E   S  S  E   S  S  E   S  S  E
|-----------------------------------------|
|-----------------------------------------|
|------16--------16--------16--------16---|
|---17--------17--------17--------17------|
|-----------------------------------------|
|-0---------0---------0---------0---------|
|
| S  S  S S S  S  S S S  S  S S S  S  S S
|-----------------------------------------|
|-----------------------------------------|
|-----------------------------------------|
|-0--0----0-0--0----0-0--0----0-0--0----0-|
|-0--0----0-0--0----0-0--0----0-0--0----0-|
|-0--0----0-0--0----0-0--0----0-0--0----0-|


  S  S  E   S  S  E   S  S  E   S  S  E
|------------------------------------------||
|-----------------------------------------o||
|------14--------14--------14--------14----||
|---17--------17--------17--------17-------||
|-----------------------------------------o||
|-0---------0---------0---------0----------||
|
| S  S  S S S  S  S S S  S  S S S  S  S S
|------------------------------------------||
|-----------------------------------------o||
|------------------------------------------||
|-0--0----0-0--0----0-0--0----0-0--0--x-x--||
|-0--0----0-0--0----0-0--0----0-0--0--x-x-o||
|-0--0----0-0--0----0-0--0----0-0--0--x-x--||


 Bridge
  Gtr III
   PM|        PM|        PM|        PM|
   S  S  E    S  S  E    S  S  E    S  S  E
|--------0----------0----------0----------0---|
|--------8----------8----------8----------8---|
|-------11---------11---------11---------11---|
|-------10---------10---------10---------10---|
|-10-10-10---10-10-10---10-10-10---10-10-10---|
|-10-10-10---10-10-10---10-10-10---10-10-10---|
|
| Gtr IV
|  S  S  S S  S  S  S S  S  S  S S  S  S  S S
|---------------------------------------------|
|---------------------------------------------|
|---------------------------------------------|
|--0--0----0--0--0----0--0--0----0--0--0----0-|
|--0--0----0--0--0----0--0--0----0--0--0----0-|
|--0--0----0--0--0----0--0--0----0--0--0----0-|


   PM|        PM|        PM|        PM|
   S  S  E    S  S  E    S  S  E    S  S  E
|--------0----------0----------0----------0---|
|--------8----------8----------8----------8---|
|-------11---------11---------11---------11---|
|-------10---------10---------10---------10---|
|-10-10-10---10-10-10---10-10-10---10-10-10---|
|-10-10-10---10-10-10---10-10-10---10-10-10---|
|
|  S  S  S S  S  S  S S  S  S  S S  S  S  S S
|---------------------------------------------|
|---------------------------------------------|
|---------------------------------------------|
|--0--0----0--0--0----0--0--0----0--0--0--0-0-|
|--0--0----0--0--0----0--0--0----0--0--0--0-0-|
|--0--0----0--0--0----0--0--0----0--0--0--0-0-|


   S S E    S S E    S S E    S S E      S S E    S S E   H
|------0--------0--------0--------0---|------0--------0---0-----|
|----8--------8--------8--------8-----|----8--------8-----------|
|-11-------11-------11-------11-------|-11-------11-------------|
|-------------------------------------|-------------------------|
|-------------------------------------|-------------------------|
|-------------------------------------|-------------------------|
|
|  S S S S  S S S S  S S S S  S S S S    S S S S  S S S S H
|-------------------------------------|-------------------------|
|-------------------------------------|-------------------------|
|-------------------------------------|-------------------------|
|--2-2---2--2-2---2--2-2---2--2-2---2-|--2-2---2--2-2---2-2s====|
|--2-2---2--2-2---2--2-2---2--2-2---2-|--2-2---2--2-2---2-2s====|
|--2-2---2--2-2---2--2-2---2--2-2---2-|--2-2---2--2-2---2-2s====|


  Gtr I
   E.  S  +E   E  +H         E.  S  +E   S      +S   +H
|------------------------|-------------------------------------|
|------------------------|-------------------------------------|
|-------------16-(16)----|--------------16b17==(16)r(16)-------|
|-----17-(17)------------|------17-(17)------------------------|
|-15---------------------|-------------------------------------|
|------------------------|--14---------------------------------|
|
| Gtr III
| +W                         W
|------------------------|-------------------------------------|
|------------------------|-------------------------------------|
|-(9)--------------------|-------------------------------------|
|------------------------|-------------------------------------|
|------------------------|-------------------------------------|
|------------------------|-------------------------------------|
|
| Gtr IV
|  W                         H.                             Q
|------------------------|-------------------------------------|
|------------------------|-------------------------------------|
|------------------------|-------------------------------------|
|-12---------------------|-------------------------------------|
|-12---------------------|-------------------------------------|
|-12---------------------|-/16----------------------------/18--|


   S  S  E S  S  E S  S  E S  S  E   S  S  E S  S  E S  S  E S  S  E
|----------------------------------|---------------------------------||
|----------------------------------|---------------------------------||
|-------16------16------16------16-|------14------14------14------14-||
|----17------17------17------17----|---17------17------17------17----||
|----------------------------------|---------------------------------||
|--0-------0-------0-------0-------|-0-------0-------0-------0-------||
|
|  W                                 W
|----------------------------------|---------------------------------||
|----------------------------------|---------------------------------||
|----------------------------------|---------------------------------||
|----------------------------------|---------------------------------||
|----------------------------------|---------------------------------||
|----------------------------------|---------------------------------||
|
|  W                                 W
|----------------------------------|---------------------------------||
|----------------------------------|---------------------------------||
|----------------------------------|---------------------------------||
|----------------------------------|---------------------------------||
|----------------------------------|---------------------------------||
|-14-------------------------------|---------------------------------||


 Chorus
  Gtr I
   S  S  E    S  S  E    S  S  E    S  S  E
|---------------------------------------------|
|---------------------------------------------|
|-------16---------16---------16---------16---|
|----17---------17---------17---------17------|
|-15---------15---------15---------15---------|
|---------------------------------------------|
|
| Gtr III
|  S  E    S  S  E    S  S  E    S  S  E    S
|---------------------------------------------|
|---------------------------------------------|
|--5--5----5--5--5----5--5--5----5--5--5------|
|--5--5----5--5--5----5--5--5----5--5--5----0-|
|--3--3----3--3--3----3--3--3----3--3--3----0-|
|-------------------------------------------0-|


   S  S  E    S  S  E    S  S  E    S  S  E
|---------------------------------------------|
|---------------------------------------------|
|-------16---------16---------16---------16---|
|----17---------17---------17---------17------|
|---------------------------------------------|
|-14---------14---------14---------14---------|
|
|  S  E    S  S  E    S  S  E    S  S  E    S
|---------------------------------------------|
|---------------------------------------------|
|---------------------------------------------|
|--2--2----2--2--2----2--2--2----2--2--2----2-|
|--2--2----2--2--2----2--2--2----2--2--2----2-|
|--2--2----2--2--2----2--2--2----2--2--2----2-|


  S  S  E   S  S  E   S  S  E   S  S  E
|-----------------------------------------|
|-----------------------------------------|
|------16--------16--------16--------16---|
|---17--------17--------17--------17------|
|-----------------------------------------|
|-0---------0---------0---------0---------|
|
| S  S  S S S  S  S S S  S  S S S  S  S S
|-----------------------------------------|
|-----------------------------------------|
|-----------------------------------------|
|-0--0----0-0--0----0-0--0----0-0--0----0-|
|-0--0----0-0--0----0-0--0----0-0--0----0-|
|-0--0----0-0--0----0-0--0----0-0--0----0-|


  S  S  E   S  S  E   S  S  E   S  S  E
|-----------------------------------------||
|-----------------------------------------||
|------14--------14--------14--------14---||
|---17--------17--------17--------17------||
|-----------------------------------------||
|-0---------0---------0---------0---------||
|
| S  S  S S S  S  S S S  S  S S S  S  S S
|-----------------------------------------||
|-----------------------------------------||
|-----------------------------------------||
|-0--0----0-0--0----0-0--0----0-0--0--x-x-||
|-0--0----0-0--0----0-0--0----0-0--0--x-x-||
|-0--0----0-0--0----0-0--0----0-0--0--x-x-||


   Outro
    Gtr I
      W            W            W            W              W            W
||-------------|------------|------------|-------------||------------|--------*|
||o------------|------------|------------|------------o||------------|--------*|
||--^16--------|-^16--------|-^16--------|-^14---------||-^16--------|-^16----*|
||--^17--------|-^17--------|-^17--------|-^17---------||-^17--------|-^17----*|
||o-^15--------|-^14--------|-^-0--------|-^-0--------o||-^15--------|-^15----*|
||-------------|-^14--------|-^-0--------|-^-0---------||------------|--------*|


Duration Legend
---------------
W - whole; H - half; Q - quarter; E - 8th; S - 16th; T - 32nd; X - 64th; a - acciaccatura
+ - note tied to previous; . - note dotted; .. - note double dotted
Uncapitalized letters represent notes that are staccato (1/2 duration)
Irregular groupings are notated above the duration line
Duration letters will always appear directly above the note/fret number it represents the
duration for.  Duration letters with no fret number below them represent rests.  Multi-
bar rests are notated in the form Wxn, where n is the number of bars to rest for.  Low
melody durations appear below the staff

Tablature Legend
----------------
 h   - hammer-on
 p   - pull-off
 b   - bend
 pb  - pre-bend
 r   - bend release (if no number after the r, then release immediately)
 /\  - slide into or out of (from/to "nowhere")
 s   - legato slide
 S   - shift slide
  - natural harmonic
[n]  - artificial harmonic
n(n) - tapped harmonic
 ~   - vibrato
 tr  - trill
 T   - tap
 TP  - trem. picking
 PM  - palm muting
\n/  - tremolo bar dip; n = amount to dip
 \n  - tremolo bar down
 n/  - tremolo bar up
/n\  - tremolo bar inverted dip
 =   - hold bend; also acts as connecting device for hammers/pulls
 <>  - volume swell (louder/softer)
 x   - on rhythm slash represents muted slash
 o   - on rhythm slash represents single note slash

Misc Legend
-----------
 |  - bar
||  - double bar
||o - repeat start
o|| - repeat end
*|  - double bar (ending)
 :  - bar (freetime)
 $  - Segno
 &  - Coda
Tempo markers -  = BPM(8/16=s8/s16), where s8 = swing 8ths, s16 = swing 16ths

Добавлено: 23.08.2013
Другие материалы по этой песне:
  • Аккорды и текст

Страница создана 23.08.2013
http://primanota.ru/lostprophets/lostprophets-chords.htm
Привет, Гость.
Предлагаем пройти революционный курс по гитаре.
Подарок от PrimaNota.Ru, забирай!