PrimaNota.ru - самый крупный в мире бесплатный архив песенных текстов, аккордов, табулатур и нот


Lostprophets - Liberation Transmission (album) - бас-таба, видео

Регистрация Запомнить меня
Войти через:  Facebook Google Twitter Vk Yandex Mail.ru

Lostprophets - Liberation Transmission (album) - бас-таба, видео

Печатать
Просмотров: 188
Уроки эстрадного вокала в Санкт-Петербурге
Liberation Transmission by LostProphets

I tabbed half of this album,by myself, and the rest of it i just copied from other tabs.

Track List

1.Everyday Combat
2.A Town Called Hipocrisy
3.A New Transmission
4.Rooftops
5.Can't Stop Gotta A Date With Hate
6.Can't Catch Tomorrow
7.Everybody's Screaming
8.Broken Hearts, Torn Up Letters And the Story Of A lonely Girl.
9.4 A.M. Forever
10.For All These Times Son. For All These Times.
11.Heaven For The Wheather. Hell For The Company.
12.Always All Ways(Apologies, Glances And Messed Up Chances).

---------------------------------------------------------------------------

1.Everyday Combat

 Intro
G|----------------------|
D|----------------------| 
A|----------------------| 
D|-4-4444444-0-00-2-22--|

Pre Verse
G|------------------------------------------|
D|------------------------------------------| 2x
A|------------------------------------------|
D|-4-4444444-7-7777777-2-2222222-2-2222222--|

Verse
G|-------------------|
D|-------------------| 2x
A|-------------------|
D|-4----7----2----2--|

Pre Verse 2x

Pre Chorus
G|------------------------------------------|
D|------------------------------------------| 2x
A|------------------------------------------|
D|-0-0000000-0-0000000-2-2222222-2-2222222--|

Chorus
G|---------------------------------------|
D|---------------------------------------| 4x
A|---------------------------------------|
D|-4-4444444-00000000-22222222-77776666--|

Intro      4x
Verse      2x
Pre Verse  2x
Pre Chorus 2x
Chorus     4x

After Chorus
G|-------------------------------|
D|-------------------------------| 2x
A|-------------------------------|
D|-2-4\\--2-4\\--2-4\\--2-4\002--|

Intro 2x

Guitar solo
G|-------------------------------------------|
D|-------------------------------------------| 4x
A|-------------------------------------------|
D|-4-4444444-7-7777777-9-9999999-7-77777777--|

Chorus 4x
After Chorus 2x (let low D --4~-- ring)

Bridge (don't think your safe...)
G|----------------------------------------------|
D|-4444444444444444-----------------------------| 2x
A|------------------0000000000000000--5..(32x)--|
D|----------------------------------------------|

Heavy part
G|----------------------------------------------------------|
D|----------------------------------------------------------| 3x
A|-------------------0-000000000000000----------------------|
D|-4-444444444444444-------------------0-0000000-2-2222222--|

End
G|----------------|
D|----------------|
A|----------------|
D|-4--7--0--2--4--|

2. A Town Called Hipocrisy

intro-00:05
G|-------|
D|-------|
A|-------|
E|-8-8-8-|

00:10 verse/pre-chorus
G|-----------------|
D|-----------------|
A|---6-6-6---6-6-6-|
E|-6-------6-------|

G|------------------------------------------|\
D|------------------------------------------|  -\
A|------------------------------------------|    -\
E|-8-x-8-x-8-3-3--3--3--6-x-6-x-6-1-1--1--0-|      x4
                                                 /
G|--------------------------------------------------|
D|--------------------------------------------------|
A|-------------------------------6-6-6---6-6-6------|
E|-8-x-8-x-8-3-3--3--3-6-x-6-x-6-------6------------|

chorus
G|-------------------------------------------------------------------|x4
D|-------------------------------------------------------------------|
A|-------------------------------------------------------------------|
E|-8-8-8-8-8-8-8-8-6-6-6-6-6-6-6-6-3-3-3-3-3-3-3-3-6-6-6-6-6-6-6-6-6-|

verse
G|------------------------------------------|\
D|------------------------------------------|  -\
A|------------------------------------------|    -\
E|-8-x-8-x-8-3-3--3--3--6-x-6-x-6-1-1--1--0-|      x4
                                /
G|--------------------------------------------------|
D|--------------------------------------------------|
A|-------------------------------6-6-6---6-6-6------|
E|-8-x-8-x-8-3-3--3--3-6-x-6-x-6-------6------------|

chorus
G|-------------------------------------------------------------------|x4
D|-------------------------------------------------------------------|
A|-------------------------------------------------------------------|
E|-8-8-8-8-8-8-8-8-6-6-6-6-6-6-6-6-3-3-3-3-3-3-3-3-6-6-6-6-6-6-6-6-6-|

pre-bridge
G|-------------------------------------------------------------------|
D|-------------------------------------------------------------------|
A|-------------------------------------------------------------------|
E|-8-8-8-8-8-8-8-8-6-6-6-6-6-6-6-6-3-3-3-3-3-3-3-3-6-6-6-6-6-6-6-6-6-|

bridge
G|------------------------------------------|\
D|------------------------------------------|  -\
A|------------------------------------------|    -\
E|-8-x-8-x-8-3-3--3--3--6-x-6-x-6-1-1--1--0-|      x2
                                                 /
G|--------------------------------------------------|
D|--------------------------------------------------|
A|-------------------------------6-6-6---6-6-6------|
E|-8-x-8-x-8-3-3--3--3-6-x-6-x-6-------6------------|

Chorus
G|-------------------------------------------------------------------|x4
D|-------------------------------------------------------------------|
A|-------------------------------------------------------------------|
E|-8-8-8-8-8-8-8-8-6-6-6-6-6-6-6-6-3-3-3-3-3-3-3-3-6-6-6-6-6-6-6-6-6-|

End on
G|---|
D|---|
A|---|
E|-8-|

3.A New Transmission


Intro & Verse (0:06)
G|-------------------------------------|
D|-----333----------------333----------|
A|---------111----------------111------|  x13
E|-22------------000--222----------000-|

Chorus (0:45)
G|------------------------------------------|-----------------------------|
D|------------------------------------------|-----------------------------|
A|-----------------------------44444--66666-|----------------44444--66666-|
E|--222222--55555--0000000000---------------|--22222--55555---------------|

Verse (1:08)
G|-------------------------------------|
D|-----333----------------333----------|
A|---------111----------------111------|  x10
E|-22------------000--222----------000-|

Repeat Chorus (1:37)

Breakdown (2:02)
G|-----------------------------------------------------------|
D|-----------------------------------------------------------|
A|--44-4-4-4-44-4-4-4--------------------4-4-4-4-44-4-4-4----|
E|---------------------22-2-2-2-22-2-2-2---------------------|

G|----------------------------------|
D|----------------------------------|
A|---------------------444444444444-|
E|--22-2-2-2-22-2-2-----------------|

Repeat Intro & Verse

4. Rooftops


Intro (Guitar and vocals)

Verse 0.39
G|-------------------------------------------------------------------------|
D|-------------------------------------------------------------------------|
A|-12\-333333333333-555555555555-777777777777-101010101010101010101010-12\-|
E|-------------------------------------------------------------------------|

G|----------------------------------------------------|
D|----------------------------------------------------|
A|-333333333333-555555555555-777777777777577577777777-|
E|----------------------------------------------------|

Chorus
G|------------------------------------------------------------------|
D|------------------------------------------------------------------| X2
A|-333333333333-555555-777777-101010-333333333333-555555-777777-555-|
E|------------------------------------------------------------------|

Verse
G|---------------------------------------------------------------------|
D|---------------------------------------------------------------------| X3
A|-333333333333-555555555555-777777777777-101010101010101010101010-12\-|
E|---------------------------------------------------------------------|

G|----------------------------------------------------|
D|----------------------------------------------------|
A|-333333333333-555555555555-777777777777577577777777-|
E|----------------------------------------------------|

Chorus
G|------------------------------------------------------------------|
D|------------------------------------------------------------------| X2
A|-333333333333-555555-777777-101010-333333333333-555555-777777-555-|
E|------------------------------------------------------------------|

Solo
G|---------------------------------------------------------------------|
D|---------------------------------------------------------------------|
A|-333333333333-555555555555-777777777777-101010101010101010101010-12\-|
E|---------------------------------------------------------------------|

G|------------------------------------------------|
D|------------------------------------------------|
A|-333333333333-555555555555-777777777777-777-777-|
E|------------------------------------------------|

Post Solo
G|-------------------------------------------------------|
D|-------------------------------------------------------|
A|-33333-33333-33333-55555-55555-55555-77777-77777-77777-|
E|-------------------------------------------------------|
                 /                                                                       
    X2
                 \
G|----------------------------------|
D|----------------------------------|
A|-1010101010-1010101212-1010121212-|
E|----------------------------------|

G|------------------------------------------------------------------|
D|------------------------------------------------------------------|
A|-333333333333-555555-777777-101010-333333333333-555555-777777-555-|
E|------------------------------------------------------------------|

G|--------------------------------------------------------|
D|--------------------------------------------------------|
A|-333333333333-555555-777777-101010-333333333333-555-777-|
E|--------------------------------------------------------|

Final Chorus
G|------------------------------------------------------------------|
D|------------------------------------------------------------------|
A|-333333333333-555555-777777-101010-333333333333-555555-777777-555-|
E|------------------------------------------------------------------|

G|---------------------------------------------------------|
D|---------------------------------------------------------|
A|-333333333333-555555-777777-101010-333333333333-5~--7~---|
E|---------------------------------------------------------|

5. Can't Stop Gotta A Date With Hate


Intro

G|-------------------------------------|
D|-------------------------------------|
A|-------------------------------------|
E|0~--33333333555555552222222233333333-|

G|-------------------------------------|
D|-------------------------------------|
A|-------------------------------------|
E|33333333555555552222222233333333-----|

Verse
X3 
G|----------------------------------------|
D|----------------------------------------|
A|----------------------------------------|
E|33-055-022-033-3-5~-33-055-022-033-3-5~-|

Chorus

G|----------------------------------------|
D|----------------------------------------|
A|----------------------------------------|
E|33333333555555552222222233333333--------|X2

"Andie"

G|-----------------------------------------------------------------|
D|-----------------------------------------------------------------|
A|-----------------------------------------------------------------|
E|33333333333333335555555555555555222222222222222233333333333333333|X2

Pre-Verse

G|----------------------------------|
D|----------------------------------|
A|----------------------------------|
E|33-055-022-033-33-055-022-033-3-5~|

Repeat Verse

Repeat Chorus

Repeat Chorus For SOLO

Then Another Chorus

Outro

G|--------------------------------|
D|--------------------------------|
A|--------------------------------|
E|22222222333333335555555533333333|

6. Can't Catch Tomorrow



Intro
G|-----------------------------------------------------------------------|
D|-----------------------------------------------------------------------| X2
A|------------------------------------3-3-3333-3-3-3333------------------|
D|-2-2-2222-2-2-2222-2-2-2222-2-4-5-7-------------------7-7-7777-7-5-4-2-|

Verse
G|----------------------------------------------|
D|----------------------------------------------| 
A|------------------------3-3--3-3--------------|
D|-2-2--2-2--2-2--2-4-5-7----------7-7--7-9-7-5-|

G|---------------------------------------------|
D|---------------------------------------------| 
A|------------------------3-3--3-3----------7\-|
D|-2-2--2-2--2-2--2-4-5-7----------7-7--7-7----|

G|---------------------------------------------------------------------|
D|---------------------------------------------------------------------| 
A|-3-3-3-3-3-3-3p2-3p2-------------------------------------------------|
D|---------------------7-7-7-7-7-7-7-9-2-2-2-2-2-2-2-2-4-4-4-4-5-5-5-5-|

Chorus
G|--------------------------------------------------------------------------|
D|--------------------------------------------------------------------------|X2
A|-3-3-3333----------5-5-5555-7-7-5-5--3-3-3333----------5-5-5555-7-7-10-10-|
D|----------5-5-5555----------------------------5-5-5555--------------------|

Post Chorus
G|------------------------------------|
D|------------------------------------|
A|------------------------------------|
D|-2-2-2222-2-2-2222-2-2-2222-2-4-5-7-|

Verse
G|----------------------------------------------|
D|----------------------------------------------| X2
A|------------------------3-3--3-3--------------|
D|-2-2--2-2--2-2--2-4-5-7----------7-7--7-9-7-5-|

G|---------------------------------------------------------------------|
D|---------------------------------------------------------------------| 
A|-3-3-3-3-3-3-3p2-3p2-------------------------------------------------|
D|---------------------7-7-7-7-7-7-7-9-2-2-2-2-2-2-2-2-4-4-4-4-7-7-9-9-|

Chorus
G|--------------------------------------------------------------------------|
D|--------------------------------------------------------------------------|X2
A|-3-3-3333----------5-5-5555-7-7-5-5--3-3-3333----------5-5-5555-7-7-10-10-|
D|----------5-5-5555----------------------------5-5-5555--------------------|

Bridge
G|-----------------------------------------------------------------------|
D|-----------------------------------------------------------------------|
A|-3-3-3333-3-3-3333-----------------------------------------------------|
D|-------------------7-7-7777-7-7-7777-2-2-2222-2-2-2222-4-4-5-5-7-7-9-9-|

G|--------------------------------------------------|
D|--------------------------------------------------|
A|-3-3-3333-3-3-3333--------------------------------|
D|-------------------7-7-7777-7-7-7777-2-2~-/14-14~-|

Chorus
G|--------------------------------------------------------------------------|
D|--------------------------------------------------------------------------|X2
A|-3-3-3333----------5-5-5555-7-7-5-5--3-3-3333----------5-5-5555-7-7-10-10-|
D|----------5-5-5555----------------------------5-5-5555--------------------|

G|--------------------------------------------------------------------------|
D|--------------------------------------------------------------------------|X2
A|-3-3-3333----------------------------3-3-3333----------5-5-5555-7-7-10-10-|
D|----------5-5-5555-0-0-0000-2-2-0-0-----------5-5-5555--------------------|

Outro
G|----------|
D|----------| X7
A|----------|
D|-2-2-2222-|

G|-------|
D|-------| 
A|-------|
D|-2-2-2-|

7. Everybody's Screaming!!!

Intro
G ---------------------------------|
D ---------------------------------|
A -4~--------------4~--------------|
E ------4--4--4--4-----4--4--4--4--|

Verse/ Chorus
G ------------------------------------|
D ------------------6666666666998866--| 6x
A -4444444444444446-------------------|
E ------------------------------------|

Pre chorus
G ----------------------------------------------------------------------|
D ----------------------------------------------------------------------|
A -0000000000000000-4444444444444444-2222222222222222-0000000000000000--|
E ----------------------------------------------------------------------|

Chorus 2x

After Chorus
G --------------------------------------------------------------|
D -----------------------222222---------------666666666644------|
A -00-00-22-22-4444444444-------00-00--22--22-------------6655--|
E --------------------------------------------------------------|

Verse 4x
Pre Chorus
Chorus 2x
After Chorus

During solo play

Chorus 1x then
Part I
G ----------------------------------|
D ----------------------------------| 1x
A -4444444444444444-2---------------|
E --------------------444444776644--|
Chorus 1x
Part I 1x

Pre chorus 1x (play last 6 notes instead of A--0--|  play D--777777--|)
Intro 1x
Chorus 4x

End
G -------|
D -------|
A --4-4--|
E -------|

8. Broken Hearts, Torn Up Letters, And The Story Of A lonely Girl.

Intro
G|---------------------------------------------------------------------------|
D|---------------------------------------------------------------------------|
A|---------------------------------------------------------------------------|
E|-11111111-33333333-55555555-77777777\-11111111-33333333-55555555\-00000000-|

G|-----------------------------------------------------------|
D|-----------------------------------------------------------|
A|-----------------------------------------------------------|
E|-11111111-33333333-55555555-77777777\-11111111-33333333-5~-|

Verse
G|-------------------------------------------------------------------|
D|-------------------------------------------------------------------|
A|-------------------------------------------------------------------|
E|-5\1111-3333-5555-5555-1111-3333-5555-5555-5\1111-5\3333-5555-5555-|

G|-----------------------|
D|-----------------------|
A|-----------------------|
E|-5\1111-3333-5555-5555-|

Chorus
G|-------------------------------------------------------------------------|
D|-------------------------------------------------------------------------| X2
A|-------------------------------------------------------------------------|
E|-888888888-33333333-55555555555555555-88888888-33333333-1111111111111111-|

Post Chorus
G|------------------------------------------------------------|
D|------------------------------------------------------------|
A|------------------------------------------------------------|
E|-11111111-33333333-555555555-77777777\-11111111-33333333-5~-|

Verse
G|-------------------------------------------------------------------|
D|-------------------------------------------------------------------|
A|-------------------------------------------------------------------|
E|-5\1111-3333-5555-5555-1111-3333-5555-5555-5\1111-5\3333-5555-5555-|

G|-------------------------|
D|-------------------------|
A|-------------------------|
E|-5\1111-5\3333-5555-5555-|

Chorus
G|-------------------------------------------------------------------------|
D|-------------------------------------------------------------------------| X2
A|-------------------------------------------------------------------------|
E|-888888888-33333333-55555555555555555-88888888-33333333-1111111111111111-|

Post Chorus
G|---------------------------------------------------------------------------|
D|---------------------------------------------------------------------------| X2
A|---------------------------------------------------------------------------|
E|-11111111-33333333-55555555-77777777\-11111111-33333333-55555555\-00000000-|

G|------------------------------------------------------|
D|------------------------------------------------------|
A|------------------------------------------------------|
E|-1111-3333-5555-5555-1111-3333-5555-5555-1111-3333-5~-|


Last Chorus X4
G|-------------------------------------------------------------------------|
D|-------------------------------------------------------------------------| 
A|-------------------------------------------------------------------------|
E|-888888888-33333333-55555555555555555-88888888-33333333-1111111111111111-|

End
G|--------------|
D|--------------|
A|--------------|
E|-1111-3333-5~-|

9. 4 A.M. Forever

Intro With Guitar and Piano, then...

G|------------------|
D|------------------|
A|2~-4~-6~--2~-4~-8~|
E|------------------|

No Bass For Verse

Pre-Chorus

G|-----------------|
D|-----------------|
A|2~-4~-6~-2~-4~-8~|
E|-----------------|

No Bass For Verse

Pre-Chorus

G|-----------------|
D|-----------------|
A|2~-4~-6~-2~-4~-8~|
E|-----------------|

Chorus
"Why don't you hear me"
G|-------------------------------------------------------------------|
D|-------------------------------------------------------------------|
A|22222-22-2-2-222-44444-44-4-4-444-66666-66-6-6-666-44444-44-4-4-444|
E|-------------------------------------------------------------------|

"Goodbye, Goodbye"

G|-------------------------------------------------------------------|
D|-------------------------------------------------------------------|
A|2222222244444444666666664444444422222222444444446666666688888888---|
E|-------------------------------------------------------------------|

"4 A.M. Forever"

G|---------|
D|---------|
A|2~-4~-6~-|
E|---------|

No Bass For Verse

Pre-Chorus X1

Chorus 2

G|-------------------------------|
D|-------------------------------|
A|2~--4~--6~--4~---2~--4~--6~--8~|
E|-------------------------------|

Guitar Solo

G|----------------------------------------------------------------|
D|----------------------------------------------------------------|
A|2222222222222222444444444444444466666666666666668888888888888888|
E|----------------------------------------------------------------|

|------------------------------------------------|
|------------------------------------------------|
|222222224444444466666666888888886666666644444444|
|------------------------------------------------|

Chorus X2

10. For All These Times Son. For all These Times.

Intro

G|--------------------------------------------------------------------|
D|6(X16)--------------------------------------------------------------|
A|------7(X16)9(X16)11(X16)-------------------------------------------|
E|--------------------------------------------------------------------|

Verse
X2
G|------------------------------------------------------------|
D|------------------------------------------------------------|
A|1111-1111-11~-11111111-7777-7777-7~-44-44-4~-4/99-99-9~-9999|
E|------------------------------------------------------------|

Post Chorus

G|----------------------------------------------------------------------|
D|----------------------------------------------------------------------|
A|1111-1111-111111111111-1111---111111111111----------------------------|
E|----------------------------------------------------------------------|

Chorus
X2
G|----------------------------------------------------------------------|
D|----------------------------------------------------------------------|
A|77777777999999996666666644444444--------------------------------------|
E|----------------------------------------------------------------------|

"Give Me Something"

G|----------------------------------------------------------------------|
D|77777777999999996666666644444444--------------------------------------|
A|----------------------------------------------------------------------|
E|----------------------------------------------------------------------|

"For All These Times"

G|----------------------------------------------------------------------|
D|----------------------------------------------------------------------|
A|77777777999999996666666644444444-11~----------------------------------|
E|----------------------------------------------------------------------|

Verse

G|----------------------------------------------------------------------|
D|----------------------------------------------------------------------|
A|1111-1111-11~-11111111-77-77-7~-7777-44-44-4~-4/99-99-9~-9999---------|
E|----------------------------------------------------------------------|

Post Chorus

G|----------------------------------------------------------------------|
D|----------------------------------------------------------------------|
A|1111-1111-111111111111-1111---111111111111----------------------------|
E|----------------------------------------------------------------------|

Chorus
X2
G|----------------------------------------------------------------------|
D|----------------------------------------------------------------------|
A|77777777999999996666666644444444--------------------------------------|
E|----------------------------------------------------------------------|

Give Me Something

G|----------------------------------------------------------------------|
D|77777777999999996666666644444444--------------------------------------|
A|----------------------------------------------------------------------|
E|----------------------------------------------------------------------|

For All These Times

G|----------------------------------------------------------------------|
D|----------------------------------------------------------------------|
A|77777777999999996666666644444444-11~----------------------------------|
E|----------------------------------------------------------------------|

Post Chorus

G|----------------------------------------------------------------------|
D|----------------------------------------------------------------------|
A|1111-1111-111111111111-1111----11111111-------------------------------|
E|----------------------------------------------------------------------|

Brigde
X2
G|----------------------------------------------------------------------|
D|6(X16)----------------------------------------------------------------|
A|------7(X16)9(X16)11(X16)---------------------------------------------|
E|----------------------------------------------------------------------|

Repeat Chorus

Repeat Brigde X2

Outro

G|----------------------------------------------------------------------|
D|----------------------------------------------------------------------|
A|1111-1111-111111111111-1111-1111-1111111111-1111-111111------11~------|
E|----------------------------------------------------------------------|

11.Heaven For The Wheather. Hell For The Company.

Intro/Verse 

G|----------------------------------|
D|----------------------------------|X6
A|----------------------------------|
D|88888888-66666666-1111111111111111|

Pre-Chorus

G|---------------------------------------------------|
D|---------------------------------------------------|
A|---------------------------------------------------|
D|1313131313131313-99999999-88888888-1212121212121212|X2

G|---------------------------------------------------------|
D|---------------------------------------------------------|
A|---------------------------------------------------------|
D|88-8~-88-8~-66-6~-66-6~-4444444444444444-6666666666666666|

Chorus

G|--------------------------------------------------------------------|
D|--------------------------------------------------------------------|
A|--------------------------------------------------------------------|
D|8888888888888888-6666666666666666-44444444444444444-6666666666666666|

Verse
Pre-Chorus
Chorus

Guitar SOLO
Note:Not exact amount
G|------------------------------------------------------|
D|------------------------------------------------------|
A|888888888888888888888888888888888888888888888888888888|
E|------------------------------------------------------|

Pre-Chorus

G|-------------------------------------------------|
D|-------------------------------------------------|
A|-------------------------------------------------|
D|88-8~-----66-6~-4444444444444444-6666666666666666|

Chorus

G|-------------------------------------------------------------------|
D|-------------------------------------------------------------------|
A|-------------------------------------------------------------------|
D|8888888888888888-6666666666666666-4444444444444444-6666666666666666|

Repeat till end.

12. Always All Ways

Intro
G|-------------------------------------------|
D|-------------------------------------------| X2
A|-77777777\-22222222/-9999999999999-111111\-|
E|-------------------------------------------|

Verse
G|-------------------------------------------|
D|-------------------------------------------| X3
A|-77777777\-22222222/-9999999999999-111111\-|
E|----------------~--------------------------|

G|-----------------------------------------------------|
D|-----------------------------------------------------|
A|-77777777\-22222222/-9999-11111111-13131313-14141414-|
E|----------------~------------------------------------|

Chorus
G|------------------------------------------|
D|--------------------99999999--------------|
A|-44444444/-77777777----------11-99999999\-|
E|-----------------~------------------------|

G|--------------------------------------------|
D|--------------------99999999----------------|
A|=44444444/-77777777----------11-99999999-7~-|
E|--------------------------------------------|

Verse
G|-------------------------------------------|
D|-------------------------------------------| X3
A|-77777777\-22222222/-9999999999999-111111\-|
E|----------------~--------------------------|

G|-----------------------------------------------------|
D|-----------------------------------------------------|
A|-77777777\-22222222/-9999-11111111-13131313-14141414-|
E|----------------~------------------------------------|

Chorus
G|------------------------------------------|
D|--------------------99999999--------------| X2
A|-44444444/-77777777----------11-99999999\-|
E|-----------------~------------------------|

G|------------------------------------------------|
D|------------------------------------------------| X2
A|-44444444/-77777777-1111111111111111\-99999999\-|
E|-----------------~------------------------------|

Bridge
G|----------------------------------------------------------|
D|----------------------------------------------------------|
A|-777777777777-xxxx-777777777777-xxxx-777777777777-xxxx----|
E|----------------------------------------------------------|

G|------------------------------------|
D|------------------------------------|
A|-9999-11111111-13131313-14141414-7~-|
E|----------------~-------------------|

Pre Chorus
G|---------------------------------------------------|
D|----------99999999---------------------------------|
A|-77777777----------9999-11111111-13131313-14141414-|
E|----------------~----------------------------------|

Chorus
G|------------------------------------------------|
D|------------------------------------------------|
A|-44444444/-77777777-1111111111111111\-99999999\-|
E|-----------------~------------------------------|

G|---------------------------------------------------------------|
D|---------------------------------------------------------------|
A|-44444444/-77777777-1111111111111111\-999999994444999999999999-|
E|-----------------~---------------------------------------------|

G|------------------------------------------------|
D|------------------------------------------------| X4
A|-44444444/-77777777-1111111111111111\-99999999\-|
E|-----------------~------------------------------|

End
G|----------|
D|----9~----|
A|-7~----9~-|
E|----------|

Phew!! That took ages you better appreciate it.
Добавлено: 11.07.2012
Другие материалы по этой песне:
  • Аккорды и текст

Страница создана 11.07.2012
http://primanota.ru/lostprophets/liberation-transmission-album-chords.htm
Привет, Гость.
Предлагаем пройти революционный курс по гитаре.
Подарок от PrimaNota.Ru, забирай!