PrimaNota.ru - самый крупный в мире бесплатный архив песенных текстов, аккордов, табулатур и нот


Lostprophets - Interlude 3 - таба, видео

Регистрация Запомнить меня
Войти через:  Facebook Google Twitter Vk Yandex Mail.ru

Lostprophets - Interlude 3 - таба, видео

Печатать
Просмотров: 24
INTERLUDE 3
As recorded by Lostprophets (From the 2000 Album THE FAKE SOUND OF PROGRESS)

Gtr I (C G C F A D) - 'Lee'

Gtr II (C G C F A D) - 'Jamie'


 Intro
  Q=80
  Esus4/A                  Esus4/C
 4/4
  Gtr I
                     \1/                      \1/
  E S S E E S S  E. +E.    E S S E E S S  E. +E.
|---0-------0------------|---0-------0------------|
|-------0--------0--(0)--|-------0--------0--(0)--|
|-----2-------2-(2)-(2)--|-----2-------2-(2)-(2)--|
|------------------------|------------------------|
|-0-------0--------------|-3-------3--------------|
|------------------------|------------------------|


 Chorus
  Esus4/A                  Esus4/C
                     \1/                      \1/
  E S S E E S S  E. +E.    E S S E E S S  E. +E.
|---0-------0------------|---0-------0------------|
|-------0--------0--(0)--|-------0--------0--(0)--|
|-----2-------2-(2)-(2)--|-----2-------2-(2)-(2)--|
|------------------------|------------------------|
|-0-------0--------------|-3-------3--------------|
|------------------------|------------------------|


  Esus4/F                  Esus4/D Esus4
                     \1/
  E S S E E S S  E. +E.    E S S E E S S E. E.
|---0-------0------------|---0-------0---------|
|-------0--------0--(0)--|-------0-------0-----|
|-----2-------2-(2)-(2)--|-----2-------2----2--|
|------------------------|---------------------|
|------------------------|---------------------|
|-3-------3--------------|-0-------2-----------|


    Esus4/A                   Esus4/C
                        \1/                         \1/
     E S S E E S S  E. +E.      E  S S E E S S  E. +E.
||-----0-------0------------|------0-------0------------|
||o--------0--------0--(0)--|----------0--------0--(0)--|
||-------2-------2-(2)-(2)--|--------2-------2-(2)-(2)--|
||--------------------------|---------------------------|
||o--0-------0--------------|---3--------3--------------|
||--------------------------|---------------------------|
|
|   Gtr II
|    W                         +W
||--17----------------------|-(17)----------------------|
||o-------------------------|---------------------------|
||--------------------------|---------------------------|
||--------------------------|---------------------------|
||o-------------------------|---------------------------|
||--------------------------|---------------------------|


  Esus4/F                     Esus4/D    Esus4
                        \1/
    E  S S E E S S  E. +E.      E  S S E E S S E. E.   3x
|------0-------0------------|------0-------0-----------||
|----------0--------0--(0)--|----------0-------0------o||
|--------2-------2-(2)-(2)--|--------2-------2----2----||
|---------------------------|--------------------------||
|---------------------------|-------------------------o||
|---3--------3--------------|---0--------2-------------||
|
|  +W                          +W                      3x
|-(17)----------------------|-(17)---------------------||
|---------------------------|-------------------------o||
|---------------------------|--------------------------||
|---------------------------|--------------------------||
|---------------------------|-------------------------o||
|---------------------------|--------------------------||


 Fade Out
  Esus4/A                   Esus4/C
                      \1/                         \1/
   E S S E E S S  E. +E.      E  S S E E S S  E. +E.
|----0-------0------------|------0-------0------------|
|--------0--------0--(0)--|----------0--------0--(0)--|
|------2-------2-(2)-(2)--|--------2-------2-(2)-(2)--|
|-------------------------|---------------------------|
|--0-------0--------------|---3--------3--------------|
|-------------------------|---------------------------|
|
|  W                         +W
|-17----------------------|-(17)----------------------|
|-------------------------|---------------------------|
|-------------------------|---------------------------|
|-------------------------|---------------------------|
|-------------------------|---------------------------|
|-------------------------|---------------------------|


  Esus4/F                     Esus4/D    Esus4
                        \1/
    E  S S E E S S  E. +E.      E  S S E E S S E. E.
|------0-------0------------|------0-------0---------*|
|----------0--------0--(0)--|----------0-------0-----*|
|--------2-------2-(2)-(2)--|--------2-------2----2--*|
|---------------------------|------------------------*|
|---------------------------|------------------------*|
|---3--------3--------------|---0--------2-----------*|
|
|  +W                          +W
|-(17)----------------------|-(17)-------------------*|
|---------------------------|------------------------*|
|---------------------------|------------------------*|
|---------------------------|------------------------*|
|---------------------------|------------------------*|
|---------------------------|------------------------*|
Добавлено: 09.11.2015
Другие материалы по этой песне:
  • Аккорды и текст

Страница создана 09.11.2015
http://primanota.ru/lostprophets/interlude-3-chords.htm
Привет, Гость.
Предлагаем пройти революционный курс по гитаре.
Подарок от PrimaNota.Ru, забирай!