PrimaNota.ru - самый крупный в мире бесплатный архив песенных текстов, аккордов, табулатур и нот


Lostprophets - If It Wasnt For Hate Wed Be Dead By Now - текст песни, таба, видео

Регистрация Запомнить меня
Войти через:  Facebook Google Twitter Vk Yandex Mail.ru

Lostprophets - If It Wasnt For Hate Wed Be Dead By Now - текст песни, таба, видео

Печатать
Просмотров: 127
-------------------------------------------------------------------------------
	If It Wasn't for Hate, We'd Be Dead by Now - LostProphets
-------------------------------------------------------------------------------
Tabbed by: Alex
Email: welshboy3254@hotmail.com

Tuning: Drop D : DADGBE

Drum Intro
                                                                  x2
e|-------|-------|-------|-------||-------|-------|-------|-------|
B|-------|-------|-------|-------||-------|-------|-------|-------|
G|-------|-------|-------|-------||-8-----|-------|-------|-------|
D|-------|-------|-------|-------||-8-----|-------|-------|-------|
A|-------|-------|-------|-------||-6-----|-------|-------|-------|
D|-------|-------|-------|-------||-------|-------|-------|-------|
                                    D*


This part repeats pretty much throughout the entire song

Main riff:
                                                                         x6
e|-----------------|-----------------|-----------------|-----------------|
B|-----------------|-----------------|-----------------|-----------------|
G|-----------------|-----------------|-----------------|-----------------|
D|-----------------|-----------------|-----------------|-----------------|
A|-6-6-6-----------|-----------------|-4-4-4-----------|-----------------|
D|-------6-6-6-4-4-|-4-4-4-4-4-4-4-4-|-------6-6-6-1-1-|-1-1-1-1-1-1-1-1-|

After repeating the above riff 5 times it goes into something extremely similar but
where the guitar eventually fades out, its hard to hear whats happaning properly
over all the noise though.

e|-----------------|-----------------|-----------------|-----------------|
B|-----------------|-----------------|-----------------|-----------------|
G|-----------------|-----------------|-----------------|-----------------|
D|-----------------|-----------------|-----------------|-----------------|
A|-6-6-6-----------|-----------------|-4-4-4-----------|-----------------|
D|-------6-6-6-4-4-|-4-4-4-4-4-4-4-4-|-------6-6-6-1-1-|-1-1-1-1-1-1-1-1-|


e|-----------------|-----------------|-----------------|-----------------|
B|-----------------|-----------------|-----------------|-----------------|
G|-----------------|-----------------|-----------------|-----------------|
D|-----------------|-----------------|-----------------|-----------------|
A|-6-6-6-----------|-----------------|-4-4-4-----------|-----------------|
D|-------6-6-6-4-4-|-4-4-4-4-4-4-4-4-|-------6-6-6-1-1-|-----------------|
                                                     ^ Rings

This last note in the third bar above (1 : D*) rings into the following bar but gets
quiet rather quickly so that the note can't be heard by the end of the bar. You
can do this by palm muting the note gently at first and applying more pressure.
If you listen closely, you'll see what i mean.

The main riff is played another 7 times and then:

e|-----------------|-----------------|-----------------|
B|-----------------|-----------------|-----------------|
G|-----------------|-----------------|-6---------------|
D|-----------------|-----------------|-6---6---1-------|
A|-6-6-6-----------|-----------------|-4---6---1-------|
D|-------6-6-6-4-4-|-4-4-4-4-4-4-4-4-|-----6---1-------|
                                       C*  G*  D*

					      Rings till fade out

At the very end of the song, the riff from the next song on the album (Dstryr/Dstryr) 
to play. The riff is as follows (im pretty sure its correct)


e|------------------|------------------|------------------|---------------|
B|------------------|------------------|------------------|---------------|
G|------------------|------------------|------------------|---------------|
D|-----1-------3----|-----1-------3----|-----1-------3----|-----1---------|
A|------------------|------------------|------------------|---------------|
D|-1-3---1-1-3--(3)-|-1-3---1-1-3--(3)-|-1-3---1-1-3--(3)-|-1-3-----------|

And that's it folks,
If you have any questions or corrections then email me (email at top) :D
Добавлено: 21.03.2012
Другие материалы по этой песне:
  • Аккорды и текст

Страница создана 21.03.2012
http://primanota.ru/lostprophets/if-it-wasnt-for-hate-wed-be-dead-by-now-chords.htm
Привет, Гость.
Предлагаем пройти революционный курс по гитаре.
Подарок от PrimaNota.Ru, забирай!