PrimaNota.ru - самый крупный в мире бесплатный архив песенных текстов, аккордов, табулатур и нот


Lostprophets - I Dont Know - текст песни, таба, бас-таба, видео

Регистрация Запомнить меня
Войти через:  Facebook Google Twitter Vk Yandex Mail.ru

Lostprophets - I Dont Know - текст песни, таба, бас-таба, видео

Печатать
Просмотров: 202
hey everybody seems to be struggling to tab the whole solo of the song so i thought id 
a go. i think it is pretty accurate but let me know if you find any mistakes :)

|-----------------------------------------------------------------|
|-----------------------------------------------------------------|
|---(8)---8---8---9---11b13r(11)\8-----8---8---9---11b13r(11)\4---|
|-----------------------------------------------------------------|
|-----------------------------------------------------------------|
|-----------------------------------------------------------------|

|--------------------------------------7--------------------------|
|---------------------------------5--------5----------------------|
|--4---4---6---6b7r(6)---4---6-----------------6---4---6---6---6--|
|-----------------------------------------------------------------|
|-----------------------------------------------------------------|
|-----------------------------------------------------------------|

|-------------------------------------------------------------/12-|
|-----------------------------------------------------------------|
|--x-/9---8-------8-----------6------/9---8-------8---------------|
|-------------9-------9---6-------x-----------9-------9---6-------|
|-----------------------------------------------------------------|
|-----------------------------------------------------------------|


|--(12)--11-------------------------------------------------------|
|------------12-----------------------12---12---12----------------|
|-----------------11--13--11--11--13--11---11---11\-4--4--4---4h6-|
|-----------------------------------------------------------------|
|-----------------------------------------------------------------|
|-----------------------------------------------------------------|

|-----------4------------------7----------------------11----------|
|--5-----5-----5------9-----9-------------12------12-----------17-|
|-----6-----------/9-----9----------/13-------13----------/18-----|
|-----------------------------------------------------------------|
|-----------------------------------------------------------------|
|-----------------------------------------------------------------|

|---------16--------------------19--------------------------------|
|-----17------19--------------------------------19----------------|
|-18-----------------18--16--18-----18--16--18------18--16--18----|
|-----------------------------------------------------------------|
|-----------------------------------------------------------------|
|-----------------------------------------------------------------|

|-------------9---12p9------9--12p9------9--12p9------12p9-----9--|
|--19\----12------------12-----------12-----------12--------12----|
|-----------------------------------------------------------------|
|-----------------------------------------------------------------|
|-----------------------------------------------------------------|
|-----------------------------------------------------------------|

|--19p16-16----16-19p16-16----16-19p16----16-19p16----16-19p16-16-|
|-----------17-------------17----------17----------17-------------|
|-----------------------------------------------------------------|
|-----------------------------------------------------------------|
|-----------------------------------------------------------------|
|-----------------------------------------------------------------|

|----16-19p16-16----16-19p16-16----16-21-16-17--|
|-17-------------17-------------19--------------|
|-----------------------------------------------|
|-----------------------------------------------|
|-----------------------------------------------|
|-----------------------------------------------|


i think thats it, enjoy
Добавлено: 18.05.2012
Другие материалы по этой песне:

Страница создана 26.02.2012
http://primanota.ru/lostprophets/i-dont-know-chords.htm
Привет, Гость.
Предлагаем пройти революционный курс по гитаре.
Подарок от PrimaNota.Ru, забирай!