PrimaNota.ru - самый крупный в мире бесплатный архив песенных текстов, аккордов, табулатур и нот


Lostprophets - Fake Sound Of Progress - аккорды и текст, таба, бас-таба, видео

Регистрация Запомнить меня
Войти через:  Facebook Google Twitter Vk Yandex Mail.ru

Lostprophets - Fake Sound Of Progress - аккорды и текст, таба, бас-таба, видео

Печатать
Просмотров: 333
Авторы: Jamie Oliver, Ian Watkins, Stuart Richardson, Mike Chiplin, Mike Lewis, Lee Gaze

Fake Sound Of Progress
Lostprophets
Lost Prophets ? The Fake Sound Of Progress
Tabbed by Dave Costello (Cozuk2000@yahoo.com)
Tuning : Full Step, Drop D: Low to high:  C G C F A D

Depending on which version you have, the song may differ slightly,
but everything?s here.

Intro:

D------0----2------0----2--------0-----2--------0-----2--|
A--------------------------------------------------------|
F--------------------------------------------------------|
C--------------------------------------------------------|X whatever with vocals
G--------------------------------------------------------|
C--4-----------6-------------0---------------2-----------|

Distorted Guitar:

D----------------------------------------------------------|
A----------------------------------------------------------|
F----------------------------------------------------------|
C---4----------6------------0--------------2---------------|	x 4
G---4----------6------------0--------------2---------------|
C---4----------6------------0--------------2---------------|

Verse:	Never reason with a fool
	But is that unkind?
	Looks like I?ve lost my mind once again
	I know it all sounds so contrived, but it?s got to me
	You know I?ve got to be more than this.

Verse Guitar:(clean w/delay and reverb)

D---2-------2----2----2-----4---4---4--4---5--5--5-|
A---5-------5----5----5-----5---5---5--5---5--5--5-|
F--------------------------------------------------|
C--------------------------------------------------|
G--------------------------------------------------|
C--------------------------------------------------|


Bridge guitar:

D------9---------9---------9---9--------------|
A----7---7-----7---7-----7---7---7---7--------|
F--9---------9---------9-----------9----------|
C---------------------------------------------|
G---------------------------------------------|
C---------------------------------------------|

Bridge: Don?t frown, don?t scorn
	Cos? I walk a different street to you
	You look so worn, I?ll bet that life has got you worn
	But it will never get to me

Chorus:

D------0--2--------0--2--------0--2-----------0-2----------|
A----------------------------------------------------------|
F----------------------------------------------------------|
C---4----------6------------0--------------2---------------|	x 4
G---4----------6------------0--------------2---------------|
C---4----------6------------0--------------2---------------|

Somebody told me that I always have to bow
if that was true I would have fallen apart by now
the more u think, the less u act their ways
so can u hear this, the fake sound of progress

Link:  w/ distortion (skipped out of one version)
(Unbelievable bit)

D------9---------9---------9---------12--10----|
A----7---7-----7---7-----7---7---7-------------|
F--9---------9---------9-------9---------------|
C----------------------------------------------|
G----------------------------------------------|
C----------------------------------------------|

Verse:

And I feel the way u hold, hold me back from this
chances that I've missed, now their gone
apathy is all I sense, the feelings too intense
sitting on a fence and cant decide

Bridge:

Don?t frown, don't scorn, cos I walk a different street to u
u look so worn, i bet that life is has got you blown
But it will never get to me

Chorus:

Somebody told me that I always have to bow
if that was true I would have fallen apart by now
the more u think, the less u act their ways
so can u hear this, the fake sound of progress

Guitar 2

D------------21-------------|
A--17--19-------19----------|
F---------------------------|
C---------------------------|	X4
G---------------------------|
C---------------------------|

Clean:

D------9---------9---------9-----------------------|
A----7---7-----7---7-----7---7---7-----------------|
F--9---------9---------9---------9-----------------|
C--------------------------------------------------|
G--------------------------------------------------|
C--------------------------------------------------|

Bridge:

D----------------------------------------------|
A----------------------------------------------|
F----------------------------------------------|		x 2
C--4----------7----------0-----9-9--7--6-------|
G--4----------7----------0-----9-9--7--6-------|
C--4----------7----------0-----9-9--7--6-------|

Lyrics:

All these words I accounted for
I?ll never feel another day
All this choice but I need more
Make me take away
Tell me now can you hear the sound?
Of all these people falling down
Going back into the ground
Make me smile again

Same chords as the bridge but different rhythm, quite easy to work out. X2

DA DA DA bit

Over chords of the Bridge

F------------------------------------------------------|
A------------------------------------------------------|
D------------------------------------------------------|
C------------------------------------------------------|
G------------------------------------------------------|
C-4-4-2-4-2-4b5r4-2-4----------------------------------|

The ending, this is where the different versions differ:

The ending to the one on the album, is basically just repeating the chorus, then that?s it?

So whatever version you have, all the riffs are tabbed out here.  Have fun
Добавлено: 21.05.2012
Другие материалы по этой песне:

Страница создана 09.03.2012
http://primanota.ru/lostprophets/fake-sound-of-progress-chords.htm
Привет, Гость.
Предлагаем пройти революционный курс по гитаре.
Подарок от PrimaNota.Ru, забирай!