PrimaNota.ru - самый крупный в мире бесплатный архив песенных текстов, аккордов, табулатур и нот


Lostalone - Vesuvius - таба, видео

Регистрация Запомнить меня
Войти через:  Facebook Google Twitter Vk Yandex Mail.ru

Lostalone - Vesuvius - таба, видео

Печатать
Просмотров: 163
LOSTALONE
VESUVIUS
email wasssup@hotmail.co.uk for any corrections, comments, and/or further why i should jump

no timings included etc

TUNING: Eb (eb Bb Gb Db Ab Eb)

INTRO
e------------------------------|
B------------------------------|
G------------------------------|
D------------------------------| X4--------
A-------5h7p5p0----------------|           |
E-0-05h7-------7p6p5p0h3h5p3p0-|           |
                                           X 2
e-0-0h7p0h8p07p0--------|                  |
B---------------8p0h7p0-|                  |
G-----------------------|                  |
D-----------------------|                  |
A-----------------------|------------------|
E-----------------------|


VERSE

e-0-0h7p0h8p07p0------------|
B---------------8p0h7p0-----|
G-----------------------12/-|
D-----------------------12/-|\
A-----------------------10/-| \
E---------------------------|  \
                               X2
e-0-0h7p0h8p07p0-----------|  /
B---------------8p0h7p0----| /
G-----------------------9/-|/
D-----------------------9/-|
A-----------------------7/-|
E--------------------------|

e-----------------------------------|
B-----------------------------------|
G-----------------------------------|
D-10101010101010107-7-7-7-7-7-7-7-7-|
A-10101010101010107-7-7-7-7-7-7-7-7-|
E-8-8-8-8-8-8-8-8-5-5-5-5-5-5-5-5-5-|

e-0-0h7p0h8p07p0------------|
B---------------8p0h7p0-----|
G-----------------------12/-|
D-----------------------12/-|\
A-----------------------10/-| \
E---------------------------|  \
                               X2
e-0-0h7p0h8p07p0-----------|  /
B---------------8p0h7p0----| /
G-----------------------9/-|/
D-----------------------9/-|
A-----------------------7/-|
E--------------------------|

e-------------------------------|
B-------------------------------|
G-------------------------------|
D-10101010101010107-7-7-7-7-7-7-| X3
A-10101010101010107-7-7-7-7-7-7-|
E-8-8-8-8-8-8-8-8-5-5-5-5-5-5-5-|

CHORUS
e------------------------------------------|
B------------------------------------------|
G-----4443-2-2-----444444445555711b12r11-9-|
D-2-224443-2-2655554444444455557-----------| X2
A-2-222221-0-0655552222222233335-----------|
E-0-00--------43333------------------------|

RIFF

e------------------------------|
B------------------------------|
G------------------------------|
D------------------------------| X4--------
A-------5h7p5p0----------------|           |
E-0-05h7-------7p6p5p0h3h5p3p0-|           |
                                           X 2
e-0-0h7p0h8p07p0--------|                  |
B---------------8p0h7p0-|                  |
G-----------------------|                  |
D-----------------------|                  |
A-----------------------|------------------|
E-----------------------|

VERSE

e-0-0h7p0h8p07p0------------|
B---------------8p0h7p0-----|
G-----------------------12/-|
D-----------------------12/-|\
A-----------------------10/-| \
E---------------------------|  \
                               X2
e-0-0h7p0h8p07p0-----------|  /
B---------------8p0h7p0----| /
G-----------------------9/-|/
D-----------------------9/-|
A-----------------------7/-|
E--------------------------|

e-----------------------------------|
B-----------------------------------|
G-----------------------------------|
D-10101010101010107-7-7-7-7-7-7-7-7-|
A-10101010101010107-7-7-7-7-7-7-7-7-|
E-8-8-8-8-8-8-8-8-5-5-5-5-5-5-5-5-5-|

e------------------------|
B------------------------|
G--------------------12/-|
D-2-2----------------12/-|
A-2-2----------------10/-|
E-0-0--------------------|

e-----------------------------------|
B-----------------------------------|
G-----------------------------------|
D-10101010101010107-7-7-7-7-7-7-7-7-| X3
A-10101010101010107-7-7-7-7-7-7-7-7-|
E-8-8-8-8-8-8-8-8-5-5-5-5-5-5-5-5-5-|

CHORUS
e------------------------------------------|
B-15b17~~~---------------------------------|
G-----4443-2-2-----444444445555711b12r11-9-|
D-2-224443-2-2655554444444455557-----------|
A-2-222221-0-0655552222222233335-----------|
E-0-00--------43333------------------------|

e------------------------------------------|
B------------------------------------------|
G-----4443-2-2-----444444445555711b12r11-9-|
D-2-224443-2-2655554444444455557-----------| X3
A-2-222221-0-0655552222222233335-----------|
E-0-00--------43333------------------------|

BRIDGE
rhythm
e---------3-2-0-----7-------------|
B-------1-------1-----8-----4-----|
G-----2-----------------5-----4---|
D---2------------/5-------------4-| X3-----------|
A-0-----------------------2-------|              |
E---------------------------------|              |
                                                X2
e------------|                                   |
B---5--------|                                   |
G-----5------|                                   |
D-------5----|-----------------------------------|
A-3-------2~-|
E------------|
lead
e----------------------------|
B-5---7----8-----10----12----|
G-7b9-9b11-10b12-12b14-14b16-|
D----------------------------|
A----------------------------|
E----------------------------|

e----------------------------|
B-5---7----8-----10----8-----|
G-7b9-9b11-10b12-12b14-10b12-|
D----------------------------|
A----------------------------|
E----------------------------|

e----------------------------|
B-5---7----8-----10----12----|
G-7b9-9b11-10b12-12b14-14b16-|
D----------------------------|
A----------------------------|
E----------------------------|

e-1414--1414--14------------------------|
B-----12----12--12-13~~~-12~~~~-10~8/10-|
G---------------------------------------|
D---------------------------------------|
A---------------------------------------|
E---------------------------------------|
rhythm 
e----------------------------------------------------------------|
B----------------------------------------------------------------|
G---------------------------4443-2-2-----444444445555711b12r11-9-|
D---------------------------4443-2-2655554444444455557-----------|
A---------------------------2221-0-0655552222222233335-----------|
E-0-0012-0-12-0-121212121212--------43333------------------------|

e------------------------------------------|
B------------------------------------------|
G-----4443-2-2-----444444445555711b12r11-9-|
D-2-224443-2-2655554444444455557-----------|
A-2-222221-0-0655552222222233335-----------|
E-0-00--------43333------------------------|
lead
e----19-15------------------------------------------------19-|
B-17-------19-20~-5--7---8----10---12---13----19b20r19p17----|
G-----------------7b99b1110b1212b1414b1615b17----------------|
D------------------------------------------------------------|
A------------------------------------------------------------|
E------------------------------------------------------------|

CHORUS
e------------------------------------------|
B------------------------------------------|
G-----4443-2-2-----444444445555711b12r11-9-|
D-2-224443-2-2655554444444455557-----------| X4
A-2-222221-0-0655552222222233335-----------|
E-0-00--------43333------------------------|

OUTRO
e------------------------------|
B------------------------------|
G------------------------------|
D------------------------------| X8
A-------5h7p5p0----------------|           
E-0-05h7-------7p6p5p0h3h5p3p0-| 
Добавлено: 02.09.2013
Другие материалы по этой песне:

Страница создана 02.09.2013
http://primanota.ru/lostalone/vesuvius-chords.htm
Привет, Гость.
Предлагаем пройти революционный курс по гитаре.
Подарок от PrimaNota.Ru, забирай!