PrimaNota.ru - самый крупный в мире бесплатный архив песенных текстов, аккордов, табулатур и нот


Lostalone - The Star - таба, видео

Регистрация Запомнить меня
Войти через:  Facebook Google Twitter Vk Yandex Mail.ru

Lostalone - The Star - таба, видео

Печатать
Просмотров: 100
chorus
hey! this is my first tab and its not 100% correct! if you have found some
mistakes, mail me please!
this is an absolut incridible song...

|--------------------------------------------------------------------|
|--------------------------------------------------------------------|
|-----------13----------------------------------------13-------------|
|--------13----13-----------13----------8-----------13----13---------|
|-----14----------14-----14-----14---9-----9-----14-----------14-----|
|-12------------------12----------------------12------------------12-|

|----------------------------------------------------------------------------|
|----------------------------------------------------------------------------|
|--------------------15------------------------------------------------------|
|-----13---------------------------------------------------------------------|
|--14-----14-------16-----16-------------------------------------------------|
|--------------14-------------14---------------------------------------------|
Добавлено: 31.05.2012
Вам также может быть интересно:
Другие материалы по этой песне:
  • Аккорды и текст

Страница создана 31.05.2012
http://primanota.ru/lostalone/the-star-chords.htm
Привет, Гость.
Предлагаем пройти революционный курс по гитаре.
Подарок от PrimaNota.Ru, забирай!