PrimaNota.ru - самый крупный в мире бесплатный архив песенных текстов, аккордов, табулатур и нот


Lostalone - Elysium - таба, видео

Регистрация Запомнить меня
Войти через:  Facebook Google Twitter Vk Yandex Mail.ru

Lostalone - Elysium - таба, видео

Печатать
Просмотров: 97
Уроки эстрадного вокала в Санкт-Петербурге
Elysium

Riff principal joué 3x

Eb-----------------------------------------------------------------------------------I
Bb-------------------------------------------------------------/----10-----10----etc-I
Gb------------------------------7--5p4-5p4-----------------7--5--/--10-----10----etc-I
Db-----------------------------------------5-5-----------------/12-----12--------etc-I
Ab------5---3p2-3p2-----5-5-5/6--6---------------5-5-5/6--6----------------------etc-I
Eb-3-(3)------------3-3--------------------------------------------------------------I 

légère modification du riff principal joué 1x
Eb-----------------------------------------------------------------------------------I
Bb-------------------------------------------------------------/----10-----10----etc-I
Gb------------------------------7--5p4-5p4---------------7--5--/----10-----10----etc-I
Db-----------------------------------------5-5-----------------/12-----12--------etc-I
Ab----5--3p2-3p2-3/5-3-5--5/6--6---------------5-5-5/6--6------------------------etc-I
Eb-3-3-------------------------------------------------------------------------------I

Chords Used In This Song:
---G5----Bb5---Eb5--Bb5*-D5---F5----G5*--F5*----I-Gm----Eb----Dm-------I
Eb----------------------------------------------I-------11----10-------I
Bb----------------------------------------------I-11----11----10-------I
Gb-12----15----8---------7----10----------------I-12----12----10-------I
Db-12----15----8----8----7----10----5----3------I-12----13----12-------I
Ab-10----13----6----8----5----8-----5----3------I-10-------------------I
Eb------------------6---------------3----1------I----------------------I


Billy Riff! 
Eb-------------I
Bb-------------I
Gb-------------I
Db-13-12-10----I
Ab-10-10-10----I
Eb-------------I


Verse 1

G5 Billy Riff
This sound here is a corrupt wave

G5 Billy Riff
This here treasure is a find

Bb5 Eb5
Pleasure or pain I got to write these feelings down

G5
I lie captive on the night train


The past flows silently outside

Bb5 Eb5
Scribe stir crazy in this tin can

Bb5* D5
Belief is written to incite

Eb5 G5 Bb5 F5
I can nearly taste the clear lake where Elysium resides

Eb5 G5* D5
You've got a lot of heart but this is goodbye

Verse 2
I condemn your revolution
As a witch hunt through the chaos through all time
I'm well versed but evolution stirs my mind
Renounce all hallelujahs
Your god is on the beach not in the sky
A love for the mystical finds me
A Technicolor mission for the eye
A leap into the real world where reality defies
Conspiracy surrounds us this is goodbye



Chorus

G5*----D5------------Eb5----------Bb5-A5-G5*-F5*-Eb5----F5*----G5*-D5-Eb5-F5-
Lonely give into the lonely we're staring into endless space time

Solo:

Backing Chords: Gm, Gm(D Bass), Eb, Gm, Dm(Bb Bass), Dm(F Bass)

Middle 8 Verse

Gm Gm(D Bass)
Dazed and dizzy and starved of touch


Eb
Our explosion makes us limitless


Gm Dm(Bb Bass) Dm(F Bass)
Rise up and sleep a life

Gm Gm(D Bass)
Lost and lonely survived by

Eb
Stark memories of a distant time

Gm Dm(Bb Bass) Dm(F Bass)
Raise your feelings high

Gm Gm(D Bass)
Jaded vision in your eyes trust

Eb
You got to relay what you saw

Gm Dm(Bb Bass) Dm(F Bass)
And capture all your thoughts

Bridge Riff

Eb--------------------------------I
Bb--------------------------------I
Gb--------------------------------I
Db-5---------------------------3--I
Ab------------------------3--5----I
Eb----3-3-5--5-5-6--6-6-----------I
Добавлено: 15.07.2012
Другие материалы по этой песне:

Страница создана 06.03.2012
http://primanota.ru/lostalone/elysium-chords.htm
Привет, Гость.
Предлагаем пройти революционный курс по гитаре.
Подарок от PrimaNota.Ru, забирай!