PrimaNota.ru - самый крупный в мире бесплатный архив песенных текстов, аккордов, табулатур и нот


Lostalone - Creatures - бас-таба, видео

Регистрация Запомнить меня
Войти через:  Facebook Google Twitter Vk Yandex Mail.ru

Lostalone - Creatures - бас-таба, видео

Печатать
Просмотров: 126
A good song by a good band, not been released yet, but will be on the new album :)

G|:|--------------------9-10---7---|
D|:|---------2---/9-7--------------|
A|:|-3---3-5-----------------------|
E|:|-------------------------------|

G|:|-------------------------------|
D|:|---------2---/9-7---2-3---0----|
A|:|-3---3-5-----------------------|
E|:|-------------------------------|
Добавлено: 06.04.2012
Другие материалы по этой песне:

Страница создана 06.04.2012
http://primanota.ru/lostalone/creatures-chords.htm
Привет, Гость.
Предлагаем пройти революционный курс по гитаре.
Подарок от PrimaNota.Ru, забирай!