PrimaNota.ru - самый крупный в мире бесплатный архив песенных текстов, аккордов, табулатур и нот


Lost Frequencies - Reality Live - таба, видео

Регистрация Запомнить меня
Войти через:  Facebook Google Twitter Vk Yandex Mail.ru

Lost Frequencies - Reality Live - таба, видео

Печатать
Просмотров: 2809
Уроки эстрадного вокала в Санкт-Петербурге
-------------------------------------------------------------------------------
   Reality "live at MNM marathonradio" - Lost Frequencies feat Janieck Devy 
                                         (ft. Mikaël Ophoff ft. Emma Lauwers)
-------------------------------------------------------------------------------
Tabbed by: stun64 
live version: https://www.youtube.com/watch?v=ZZ7rQS9-hiE
I think it's an accurate tab.
Tuning:EADGBe

guitar 1 : Janieck Devy
   E    G#m  C#m  A
e -0----4----4----0----|
B -0----4----5----2----|
G -1----4----6----2----|
D -2----6----6----2----|
A -0----6----4----0----|
E ------4--------------|


E G#m C#m A (2x)

               E                  G#m
Decisions as I go, to anywhere I flow.
               C#m                            A
Sometimes I believe, a time where we should know.
             E                G#m   
I can't fly high, I can't go long.
               C#m                         A
Today I got a million, tomorrow, I don't know.
               E                  G#m
Decisions as I go, to anywhere I flow.
               C#m                            A
Sometimes I believe, a time where we should know.
             E                G#m
I can't fly high, I can't go long.
               C#m                         A
Today I got a million, tomorrow, I don't know.


E G#m C#m A (2x)

                         E                        G#m
Stop crying like you're home and think about the show.
                       C#m                         A
We're all playing the same game, I'm laying down along.
                  E                     G#m
We're unknown and wrong, special when I come.
                    C#m                           A
Hate will make you cautious, love will make you glow.
                  E                     G#m
Make me feel the warm, make me feel the cold.
                     C#m                         A
It's written in our story, it's written on the walls.
             E                    G#m
This is our call, we rise and we fall.
                C#m                          A
Dancin' in the moonlight, don't we have it all?


E  G#m  C#m  A  (3x)

               E                  G#m
Decisions as I go, to anywhere I flow.
               C#m                           A
Sometimes I believe, a time where we should know.
             E                G#m
I can't fly high, I can't go long.
               C#m                         A
Today I got a million, tomorrow, I don't know.
                  E                     G#m
Make me feel the warm, make me feel the cold.
                     C#m                        A
It's written in our story, it's written on the walls.
             E                    G#m
This is our call, we rise and we fall.
                C#m                         A
Dancin' in the moonlight, don't we have it all?


E  G#m  C#m  A

Guitar 2: Mikaël Ophoff
                                                  |-coulé-|
e -------7--------------------------------------------------------|
B --/9-9---9---4-----4-4-------5---5-4-2-2-----2-4-2-h4-p2--------|
G --/9---------4-4---------4---6---6-6-2-----2--------------4-----|
D -------------6---6-----6-----6---6-6-2---2----------------------|     2x 
A ---------------------------4---4--------------------------------|
E -----------4----------------------------------------------------|

e --------------|
B --------------|
G -9--8--6------|
D ----------7---|       
A --------------|
E --------------|

                                                  |-coulé-|
e -------7--------------------------------------------------------|
B --/9-9---9---4-----4-4-------5---5-4-2-2-----2-4-2-h4-p2--------|
G --/9---------4-4---------4---6---6-6-2-----2--------------4-----|
D -------------6---6-----6-----6---6-6-2---2----------------------|     2x quiet, 2x loud
A ---------------------------4---4--------------------------------|
E -----------4----------------------------------------------------|

e --------------|
B --------------|
G -9--8--6------|
D ----------7---|       
A --------------|
E --------------|

                                                  |-coulé-|
e -------7--------------------------------------------------------|
B --/9-9---9---4-----4-4-------5---5-4-2-2-----2-4-2-h4-p2--------|
G --/9---------4-4---------4---6---6-6-2-----2--------------4-----|
D -------------6---6-----6-----6---6-6-2---2----------------------|     2x quiet
A ---------------------------4---4--------------------------------|
E -----------4----------------------------------------------------|

X= palmmuted
   x x x x x x x x x x x x x x x x x x x x x x x x x x x x x x x x
e -----------------------------------------------------------------|
B -----------------------------------------------------------------|
G -----------------------------------------------------------------|
D -----------------------------------------------------------------|
A ---------------------------------4-4-4-4-4-4-4-4-----------------|
E -0-0-0-0-0-0-0-0-4-4-4-4-4-4-4-4-----------------5-5-5-5-5-5-5-5-|

   x x x x x x x x x x x x x x x x x x x x x x x x x x x x 
e -----------------------------------------------------------------|
B -----------------------------------------------------------------|
G -----------------------------------------------------------------|
D ---------------------------------6-6-6-6-6-6-6-6---------7-7-7-7-|
A -2-2-2-2-2-2-2-2-6-6-6-6-6-6-6-6-4-4-4-4-4-4-4-4-7-7-7-7-7-7-7-7-|
E -0-0-0-0-0-0-0-0-4-4-4-4-4-4-4-4-----------------5-5-5-5-5-5-5-5-|

   
e -----------------------------------------------------------------|
B -----------------------------------------------------------------|
G ---------------------------------6-6-6-6-6-6-6-6-----------------|
D -2-2-2-2-2-2-2-2/6-6-6-6-6-6-6-6-6-6-6-6-6-6-6-6-7-7-7-7-7-7-7-7-|    2x
A -2-2-2-2-2-2-2-2/6-6-6-6-6-6-6-6-4-4-4-4-4-4-4-4-7-7-7-7-7-7-7-7-|
E -0-0-0-0-0-0-0-0/4-4-4-4-4-4-4-4-----------------5-5-5-5-5-5-5-5-|

                                                  |-coulé-|
e -------7---------------------------------------------------------|
B --/9-9---9---4-----4-4-------5---5-4-2-2-----2-4-2-h4-p2---------|
G --/9---------4-4---------4---6---6-6-2-----2--------------4------|
D -------------6---6-----6-----6---6-6-2---2-----------------------|    3x
A ---------------------------4---4---------------------------------|
E -----------4-----------------------------------------------------|

                                                 
e -------7--------------------------------------------------------|
B --/9-9---9---4-----4-4-------5---5-4-2-2-----3---------3--------|
G --/9---------4-4---------4---6---6-6-2---2-----2-4-2-4----------|
D -------------6---6-----6-----6---6-6-2-----2--------------------|     
A ---------------------------4---4--------------------------------|
E -----------4----------------------------------------------------|
                                                  |-coulé-|
e -------7--------------------------------------------------------|
B --/9-9---9---4-----4-4-------5---5-4-2-2-----2-4-2-h4-p2--------|
G --/9---------4-4---------4---6---6-6-2-----2--------------4-----|
D -------------6---6-----6-----6---6-6-2---2----------------------|     slow down
A ---------------------------4---4--------------------------------|
E -----------4----------------------------------------------------|


************************************

| /   slide up
| \   slide down
| h   hammer-on
| p   pull-off
| ~   vibrato
| +   harmonic
| x   Mute note
| b   Bend
| pb  Pre-bend
| br  Bend release
| pbr Pre-bend release
| brb Bend release bend

************************************
Добавлено: 05.10.2015
Вам также может быть интересно:
Другие материалы по этой песне:
  • Аккорды и текст

Страница создана 05.10.2015
http://primanota.ru/lost-frequencies/reality-live-chords.htm
Привет, Гость.
Предлагаем пройти революционный курс по гитаре.
Подарок от PrimaNota.Ru, забирай!