PrimaNota.ru - самый крупный в мире бесплатный архив песенных текстов, аккордов, табулатур и нот


Lost Cause - I Dont Care - таба, видео

Регистрация Запомнить меня
Войти через:  Facebook Google Twitter Vk Yandex Mail.ru

Lost Cause - I Dont Care - таба, видео

Печатать
Просмотров: 129
this is my bands first song

drop D tuning

Verse
e-------------------------------------------------------------|
b-------------------------------------------------------------|
g-------------------------------------------------------------|
d-------------------------------------------------------------|
a---0-0-0--0-0-0--0-0-0--0-0-0--0-0-0-1-1-1-3-3-3-5-5---------|
D---0-0-0--0-0-0--0-0-0--0-0-0--0-0-0-1-1-1-3-3-3-5-5---------|  X4

Chorus
e-------------------------| X4
b-------------------------|
g-------------------------|
d-------------------------|
a---5-4-0-2-2--7-5-0-2-2--|
D---5-4-0-2-2--7-5-0-2-2--|

e-----------------------------------|
b-----------------------------------|
g-----------------------------------|
d-----------------------------------|
a---2-0-2-0-2-0-2-0-5-0-5-0-7-0-7---|
D---2-0-2-0-2-0-2-0-5-0-5-0-7-0-7---|

e---------------------------------------------------|
b---------------------------------------------------|
g---------------------------------------------------|
d---------------------------------------------------|
a---2-0-2-0-2-0-2-0----------------7777-5555-4444-0-|
D---2-0-2-0-2-0-2-0-5-0-5-5/7-0-5-7-----------------|


(Verse)

(Chorus)

e--------------------------------------------------------------------|
b--------------------------------------------------------------------|
g--------------------------------------------------------------------|
d--------------------------------------------------------------------|
a---2-2-0-0-2-2-0-0--4-4-0-0-4-4-0-0--5-5-4-4-5-5-4-4--7-7-5-5-4-4-0-|
D---2-2-0-0-2-2-0-0--4-4-0-0-4-4-0-0--5-5-4-4-5-5-4-4--7-7-5-5-4-4-0-|

(Solo) ((not listed yet))

e----------------------------| X4
b----------------------------|
g----------------------------|
d----------------------------|
a---0-0-2-3-0-2-3-0-2-2-3-3--|
D---0-0-2-3-0-2-3-0-2-2-3-3--|
Добавлено: 05.07.2012
Другие материалы по этой песне:
  • Аккорды и текст

Страница создана 05.07.2012
http://primanota.ru/lost-cause/i-dont-care-chords.htm
Привет, Гость.
Предлагаем пройти революционный курс по гитаре.
Подарок от PrimaNota.Ru, забирай!