PrimaNota.ru - самый крупный в мире бесплатный архив песенных текстов, аккордов, табулатур и нот


Lost Acapulco - Mi Sin Goggles - аккорды и текст, таба, бас-таба, видео

Регистрация Запомнить меня
Войти через:  Facebook Google Twitter Vk Yandex Mail.ru

Lost Acapulco - Mi Sin Goggles - аккорды и текст, таба, бас-таба, видео

Печатать
Просмотров: 75
Mi Sin Goggles
Lost Acapulco
Estoy seguro de que esta tab es correcta 

Aclaro que esto no es plagio como lo de Vid, ni cosas malhechas como las
Rulo alias el ^ÓBien Perrita^Ô.

 

e-7-----7-----9---

b-7-----8-----9---  Estos son los tonos que se escuchan

g-7-----9-----9---  al inicio y durante toda la cancion.

d-----------------  (no estan en orden )

a-----------------

E-----------------

 

 

El bajo y la guitarra tocan estos riff juntos:

Las notas que estan entre paréntesis se tocan hasta la

Cuarta vuelta.

 

e---------------------------------

b---------------------------------

g---------------------------------

d---------------------------------

a^×--5-7-9-7-5---5-----------------

E-7-----------7---5h7-(7)-5h7-(7)-

 

 

e---------------------------------

b---------------------------------

g---------------------------------

d---5-7-9-7-5---5-----------------

a-7-----------7---5h7-(7)-5h7-(7)-

E---------------------------------

 

Después la guitarra toca esto:

 

e---------------------------------

b---------------------------------

g---------------------------------

d---------------------------------

a^×--5-7-9-7-5---5---5-7-9-7-5---5-

E-7-----------7---7-----------7---

 

e---------------------------------

b---------------------------------

g---------------------------------

d---5-7-9-7-5---5-----------------

a-7-----------7-----5-7-9-7-5---5-

E-----------------7-----------7---

 

 

 

 

 

 

 

Los acordes que se escuchan son  G,F#,G y B

 

e-3---2---3---7-7-

b-3---2---3---7-7-

g-4---3---4---8-8-

d-5---4---5---9-9-

a-5---4---5---9-9-

E-3---2---3---7-7-

 

 

 

e-6/7-7-7-7-||-6/7-7-7-7-7-7-7-10-9-6/7-7-7-7-------

b-6/7-7-7-7-||-6/7-7-7-7-7-7-7-10-9-6/7-7-7-7-------

g-6/7-7-7-7-||-6/7-7-7-7-7-7-7-10-9-6/7-7-7-7^×etc---

d-----------||--------------------------------------

a-----------||--------------------------------------

E-----------||--------------------------------------

        3x                        Se toca una vez antes y una después del
siguiente riff.

 

 

e-11/12-12-12-12-12-12-15-15-15-14-14-14-14-11/12-etc-

b-11/12-12-12-12-12-12-15-15-15-14-14-14-14-11/12-----

g-11/12-12-12-12-12-12-15-15-15-14-14-14-14-11/12-----

d-----------------------------------------------------

a^×----------------------------------------------------

E-----------------------------------------------------

 

 

Todititita¡¡¡¡

 

P.D El bajo es lo mismo que toca la guitarra.
     
Добавлено: 04.11.2013
Другие материалы по этой песне:
  • Аккорды и текст

Страница создана 15.10.2013
http://primanota.ru/lost-acapulco/mi-sin-goggles-chords.htm
Привет, Гость.
Предлагаем пройти революционный курс по гитаре.
Подарок от PrimaNota.Ru, забирай!