PrimaNota.ru - самый крупный в мире бесплатный архив песенных текстов, аккордов, табулатур и нот


Lost Acapulco - Incidente En Calle Dakota - таба, бас-таба, видео

Регистрация Запомнить меня
Войти через:  Facebook Google Twitter Vk Yandex Mail.ru

Lost Acapulco - Incidente En Calle Dakota - таба, бас-таба, видео

Печатать
Просмотров: 74
Un 100% indiscutible

A cancion comienza así:

e-12-12-12-x-12-x-12-x-12-12-12-12-11-12------------

b-12-12-12-x-12-x-12-x-12-12-12-12-11-12------------

g---------------------------------------------------

d---------------------------------------------------

a---------------------------------------------------

E---------------------------------------------------

 

 

 

 

e-12-11---12-11-15---12-11---12-11-15-14------------

b-12-11---12-11-15---12-11---12-11-15-14------------

g---------------------------------------------------

d---------------------------------------------------

a---------------------------------------------------

E---------------------------------------------------

 

 

 

 

 

Este cambio solo lo hace una vez en la primera vuelta, 

y después regresa al riff anterior.

 

e-7---5^×-7-5h7^×-8-7---5^×7-5h7---7/14----------------

b-7---5^×-7-5h7^×-8-7---5^×7-5h7---7/14----------------

g---------------------------------------------------

d---------------------------------------------------

a---------------------------------------------------

E---------------------------------------------------

 

 

 

 

 

e------------------------------------------------------

b------------------------------------------------------

g------------------------------------------------------

d--------------3---------------------------------------

a-----3----5-6--------3-----0---------------------------

E-5-6-------------5-6----------------------------------

   8x      4x       4x

 

 

 

 

 

 

 

e------------------------------------------------------

b------------------------------------------------------

g---5-7-5---5-7---5-7-5--------------------------------

d-7-------7-----7-------7------------------------------

a-------------------------000000-----------------------

E-----------------------------------------------------

 

 

 

 

 

 

e----------------------------------------------

b---6-8-6---6-8---6-8-6------------------------

g-7-------7-----7-------7----------------------

d--------------------------000000--------------

a----------------------------------------------

e----------------------------------------------

 

 

 

P.D# 2 .-Saludos a vid alias ^Óel chino plagiario^Ô, a rules alias ^Óel
bien perrita^Ô , a fosh alias ^Óel fosh^Ô , al memo alias ^Óel hippie
come-hierba^Ô y al teto alias ^Óel bloddy british^Ô
     
Добавлено: 24.06.2013
Другие материалы по этой песне:
  • Аккорды и текст

Страница создана 24.06.2013
http://primanota.ru/lost-acapulco/incidente-en-calle-dakota-chords.htm
Привет, Гость.
Предлагаем пройти революционный курс по гитаре.
Подарок от PrimaNota.Ru, забирай!