PrimaNota.ru - самый крупный в мире бесплатный архив песенных текстов, аккордов, табулатур и нот


Loso - Fon Tok Tee Na Taang - бас-таба, видео

Регистрация Запомнить меня
Войти через:  Facebook Google Twitter Vk Yandex Mail.ru

Loso - Fon Tok Tee Na Taang - бас-таба, видео

Печатать
Просмотров: 133
-------------------------------------------------------------------------------
			     Fon tok tee na taang - Loso
-------------------------------------------------------------------------------

Tabbed By : Sangtai
e-mail: Sangtai0293@yahoo.com
*chorus
Tuning:Eb

G|---------------------------------------------------------------------------|
D|------------------0-0-0-----------------0-0-0-----------------0-0-0--------|
A|-------------0-0-0-----------------0-0-0-----------------0-0-0-------------|
E|-3-3-3--0-0-0----------3-3-3--0-0-0----------3-3-3--0-0-0------------------|

G|---------------------------------------------------------------------------|
D|----------------0-0-0-0--2-4-----------------------------------------------|
A|-3-3-3-3-3-3-3-3-----------------------------------------------------------|
E|---------------------------------------------------------------------------|

G|---------------------------------------------------------------------------|
D|------------------0-0-0-----------------0-0-0-----------------0-0-0--------|
A|-------------0-0-0-----------------0-0-0-----------------0-0-0-------------|
E|-3-3-3--0-0-0----------3-3-3--0-0-0----------3-3-3--0-0-0------------------|

G|---------------------------------------------------------------------------|
D|--------0-0-0-0------------------------------------------------------------|
A|-3-3-3-3----------------0-2------------------------------------------------|
E|---------------3-3-3-3-----------------------------------------------------|

*
G|---------------------------------------------------------------------------|
D|--------------------------0--0---------------------------------------------|
A|-3--3-3--3-2--2-2--2-0--0-----------0-2------------------------------------|
E|------------------------------3--3-----------------------------------------|

G|---------------------------------------------------------------------------|
D|------------------------------0----0----------------------0-0-0------------|
A|-3--3-3--3-2--2------0--0-3--3-------3-2-0-----------0-0-0-----------------|
E|----------------0--0----------------------3-3-3-0-0-0----------------------|

G|---------------------------------------------------------------------------|
D|-----------------0-0-0------------------0-0-0--------0-0-0-0---------------|
A|------------0-0-0------------------0-0-0------3-3-3-3----------------------|
E|-3-3-3-0-0-0-----------3-3-3-0-0-0--------------------------3-3-3-3--------|

G|---------------------------------------------------------------------------|
D|----------------0-0-0-0----------------------------------------------------|
A|---------0-0-0-0-----------------------------------------------------------|
E|-0-0-0-0-------------------------------------------------------------------|
Solo
G|---------------------------------------------------------------------------|
D|------------------0-0-0-----------------0-0-0-----------------0-0-0--------|
A|-------------0-0-0-----------------0-0-0-----------------0-0-0-------------|
E|-3-3-3--0-0-0----------3-3-3--0-0-0----------3-3-3--0-0-0------------------|

G|---------------------------------------------------------------------------|
D|--------0-0-0-0------------------------------------------------------------|
A|-3-3-3-3----------------0-2------------------------------------------------|
E|---------------3-3-3-3-----------------------------------------------------|


Repeat chorus (*)

Outro 4x or till fade out
G|---------------------------------------------------------------------------|
D|------------------0-0-0-----------------0-0-0-----------------0-0-0--------|
A|-------------0-0-0-----------------0-0-0-----------------0-0-0-------------|
E|-3-3-3--0-0-0----------3-3-3--0-0-0----------3-3-3--0-0-0------------------|

===============================================================================
Добавлено: 27.06.2012
Другие материалы по этой песне:
  • Аккорды и текст

Страница создана 27.06.2012
http://primanota.ru/loso/fon-tok-tee-na-taang-chords.htm
Привет, Гость.
Предлагаем пройти революционный курс по гитаре.
Подарок от PrimaNota.Ru, забирай!