PrimaNota.ru - самый крупный в мире бесплатный архив песенных текстов, аккордов, табулатур и нот


Losing September - American Hero - таба, видео

Регистрация Запомнить меня
Войти через:  Facebook Google Twitter Vk Yandex Mail.ru

Losing September - American Hero - таба, видео

Печатать
Просмотров: 59
Losing September
"American Hero"
ALBUM - American Hero E.P.
(c) 2015 Losing September
www.losingseptember.com
www.facebook.com/musicforlosers
Official Music Video: https://www.youtube.com/watch?v=XHJhCE-02nE

legend:
( ): let note ring
^ : string bend
v: vibrato
s: Slide to note
p : pull off
h : hammer on/off
* : artificial harmonic
/ : slide up/down
PM... : palm mute
x : mute string
ox: pick scrape


Tuned down to Drop B
6/8



  |INTRO - Distorted Piano arranged for guitar 
C#|---------------------------------|---------------------------------|
G#|----------------------10-----10--|---------------------------------|
E |--10------10------10-----10------|-12------12------12------12------|        
B |------12------12-----------------|-----14------14------14------14--|  Repeat 3x
F#|---------------------------------|---------------------------------|
B |---------------------------------|---------------------------------|

  


|VERSE 1        - 0:28
|RHYTHM 
|-----------------------------------------------------|----------------------------------------------------|
|-----------------------------------------------------|----------------------------------------------------|
|-----------------------------------------------------|----------------------------------------------------|
|-----------------------------------------------------|----------------------------------------------------|
|-----------------------------------12-10-8--10-8-7---|-------------------------------------3------5-------|
|----00000----------------00000-----------------------|---00000---------------00000---------3------5-------|
|pm  .....                .....              -            .....               .....
|
|LEAD 
|-----------------------------------------------------|----------------------------------------------------|
|-----------------------------------------------------|----------------------------------------------------|
|-----------------------------------------------------|-------------------------------------10-----12------|
|----------------------------------14-12-10--12-10-9--|----------------------------------------------------|
|-----------------------------------------------------|-------------------------------------8------10------|
|---------------00000---------------------------------|--------------00000---------------------------------|
|pm             .....                                                .....




|RHYTHM 
|-----------------------------------------------------|---------------------------------------------------|
|-----------------------------------------------------|---------------------------------------------------|
|-----------------------------------------------------|---------------------------------------------------|
|-----------------------------------------------------|---------------------------------------------------|
|-----------------------------------12-10-8--10-8-7---|---------------------------------------3-----5-----|
|----00000------00000------00000----------------------|----00000------00000------00000--------3-----5-----|
|pm  .....      .....      .....                           .....      .....      .....
|
|LEAD 
|-----------------------------------------------------|---------------------------------------------------|
|-----------------------------------------------------|---------------------------------------------------|
|-----------------------------------------------------|---------------------------------------10---12-----|
|----------------------------------14-12-10--12-10-9--|---------------------------------------------------|
|-----------------------------------------------------|---------------------------------------8----10-----|
|----00000------00000------00000----------------------|----00000------00000------00000--------------------|
|pm  .....      .....      .....                           .....      .....      .....





|BRIDGE 1 - 0:41
|RHYTHM 
|-----------------------------------------------------|---------------------------------------------------|
|-----------------------------------------------------|---------------------------------------------------|
|-----------------------------------------------------|---------------------------------------------------|
|-----------------------------------------------------|---------------------------------------------------|
|-----------------------------------------------------|---------------------------------------------------| 
|---0----0----0000---00-------0----0----0000---00-----|---0----0----0000---00-------0----0----xxxx---xx---|
|
|
|LEAD 
|-----------------------------------------------------|---------------------------------------------------|
|-----------------------------------------------------|---------------------------------------------------| 
|-----------------------------------------------------|---------------------------------------------------|
|-----------------------------------------------------|---------------------------------------------------|
|-----------------------------------------------------|---------------------------------------------------|
|---0----0----0000---00-------0----0----0000---00-----|---0----0----0000---00-------0----0----xxxx---xx---|






|PRE-CHORUS 1 -  0:48
|RHYTHM 
|------------------------------------------------------------------------------|
|------------------------------------------------------------------------------|        
|------------------------------------------------------------------------------|
|------------------------------------------------------------------------------|
|------------------------------------------------------------------------------|        
|---000-0h1p0-0h3p0-0h5p0-0h3p0-0h1h0-----00-0h1p0-00h3p0-0h5p0-0h3p0-0h1h0----|
|pm .....................................................................
|
|LEAD 
|------------------------------------------------------------------------------|
|------------------------------------------------------------------------------|        
|------------------------------------------------------------------------------|
|--000-0h8p0-0h10p0-0h12p0-0h10p0-0h8h0--00-0h8p0-00h10p0-0h12p0-0h10p0-0h8h0--|    
|------------------------------------------------------------------------------|        
|------------------------------------------------------------------------------| 
|pm .....................................................................
 



|RHYTHM 
|------------------------------------------------------------------------------|
|------------------------------------------------------------------------------|        
|------------------------------------------------------------------pause-------|
|------------------------------------------------------------------------------|
|------------------------------------------------------------------------------|        
|---000-0h1p0-0h3p0-0h5p0-0h3p0-0h1h0-----000-0h1p-00h3p0-0-5------------------|
|pm .........................................................
|
|LEAD 
|------------------------------------------------------------------------------|
|------------------------------------------------------------------------------|        
|------------------------------------------------------------------pause-------|
|--000-0h8p0-0h10p0-0h12p0-0h10p0-0h8h0---000-0h8p-00h10p0-0-12----------------|    
|------------------------------------------------------------------------------|        
|------------------------------------------------------------------------------| 
|pm ..........................................................








|CHORUS 1 - 0:55
|RHYTHM 
|---------------------------------|---------------------------------|
|---------------------------------|---------------------------------|
|---------------------------------|---------------------------------|        
|---------------------------------|--5----5----5-5------------------|
|--0----0----0-0---3----3----3-3--|--3----3----3-3---5----5----5-7--|        
|--0----0----0-0---3----3----3-3--|------------------5----5----5-7--|
|
|
|LEAD
|---------------------------------|---------------------------------|
|----------------------10-----10--|---------------------------------|
|--10------10------10-----10------|-12------12--------------12------|       
|------12------12-----------------|-----14------14--------------14--|
|---------------------------------|---------------------------------|
|---------------------------------|---------------------------------|




|RHYTHM
|---------------------------------|-------------------------------------| 
|---------------------------------|-------------------------------------| 
|---------------------------------|-------------------------------------| 
|---------------------------------|--5----5----5-5----------------------|
|--0----0----0-0---3----3----3-3--|--3----3----3-3---5------5----5--3---|
|--0----0----0-0---3----3----3-3--|------------------5------5----5--3---|
|
|
|LEAD
|---------------------------------|-------------------------------------|
|----------------------10-----10--|-------------------------------------|
|--10------10------10-----10------|-12-----12---------------------------|        
|------12------12-----------------|-----14-----14----141414-14h15p14p12-|
|---------------------------------|-------------------------------------|
|---------------------------------|-------------------------------------| 





|RHYTHM 
|---------------------------------|---------------------------------|
|---------------------------------|---------------------------------|
|---------------------------------|---------------------------------|        
|---------------------------------|--5----5----5-5------------------|
|--0----0----0-0---3----3----3-3--|--3----3----3-3---5----5----5-7--|        
|--0----0----0-0---3----3----3-3--|------------------5----5----5-7--|
|
|
|LEAD
|---------------------------------|---------------------------------|
|----------------------10-----10--|---------------------------------|
|--10------10------10-----10------|-12------12--------------12------|       
|------12------12-----------------|-----14------14--------------14--|
|---------------------------------|---------------------------------|
|---------------------------------|---------------------------------|




|RHYTHM
|---------------------------------|-------------------------------------| 
|---------------------------------|-------------------------------------| 
|---------------------------------|-------------------------------------| 
|---------------------------------|--5----5----5-5----------------------|
|--0----0----0-0---3----3----3-3--|--3----3----3-3---5------5----5--3---|
|--0----0----0-0---3----3----3-3--|------------------5------5----5--3---|
|
|
|LEAD
|---------------------------------|-------------------------------------|
|----------------------10-----10--|-------------------------------------|
|--10------10------10-----10------|-12-----12---------------------------|        
|------12------12-----------------|-----14-----14----141414-14h15p14p12-|
|---------------------------------|-------------------------------------|
|---------------------------------|-------------------------------------| 







|VERSE 2 - 1:22
|RHYTHM 
|-----------------------------------------------------|----------------------------------------------------|
|-----------------------------------------------------|----------------------------------------------------|
|-----------------------------------------------------|----------------------------------------------------|
|-----------------------------------------------------|----------------------------------------------------|
|-----------------------------------12-10-8--10-8-7---|---------------------------------------3-----5------|
|----00000------00000------00000----------------------|----00000------00000------00000--------3-----5------|
|pm  .....      .....      .....                           .....      .....      .....
|
|LEAD 
|-----------------------------------------------------|----------------------------------------------------|
|-----------------------------------------------------|----------------------------------------------------|
|-----------------------------------------------------|---------------------------------------10----12-----|
|----------------------------------14-12-10--12-10-9--|----------------------------------------------------|
|-----------------------------------------------------|---------------------------------------8-----10-----|
|----00000------00000------00000----------------------|----00000------00000------00000---------------------|
|pm  .....      .....      .....                           .....      .....      .....




|RHYTHM 
|-----------------------------------------------------|----------------------------------------------------|
|-----------------------------------------------------|----------------------------------------------------|
|-----------------------------------------------------|----------------------------------------------------|
|---------------pause---------------------------------|---------------pause--------------------------------|
|-----------------------------------12-10-8--10-8-7---|---------------------------------------3------5-----|
|----00000-----------------00000----------------------|----00000-----------------00000--------3------5-----|
|pm  .....                 .....                           .....                 .....
|
|LEAD 
|-----------------------------------------------------|----------------------------------------------------|
|-----------------------------------------------------|----------------------------------------------------|
|-----------------------------------------------------|---------------------------------------10-----12----|
|---------------pause--------------14-12-10--12-10-9--|---------------pause--------------------------------|
|-----------------------------------------------------|---------------------------------------8------10----|
|----00000-----------------00000----------------------|----00000-----------------00000---------------------|
|pm  .....                 .....                           .....                 .....




|RHYTHM 
|-----------------------------------------------------|----------------------------------------------------|
|-----------------------------------------------------|----------------------------------------------------|
|-----------------------------------------------------|----------------------------------------------------|
|-----------------------------------------------------|----------------------------------------------------|
|-----------------------------------12-10-8--10-8-7---|---------------------------------------8/-----------|
|----00000------00000------00000----------------------|----00000------00000------00000--------8/-----------|
|pm  .....      .....      .....                           .....      .....      .....
|
|LEAD 
|-----------------------------------------------------|----------------------------------------------------|
|-----------------------------------------------------|----------------------------------------------------|
|-----------------------------------------------------|----------------------------------------------------|
|----------------------------------14-12-10--12-10-9--|----------------------------------------------------|
|-----------------------------------------------------|---------------------------------------8/-----------|
|----00000------00000------00000----------------------|----00000------00000------00000--------8/-----------|
|pm  .....      .....      .....                           .....      .....      .....






|BRIDGE 2 - 1:43
|RHYTHM 
|-----------------------------------------------------|----------------------------------------------------|
|-----------------------------------------------------|----------------------------------------------------|
|-----------------------------------------------------|----------------------------------------------------|
|-----------------------------------------------------|----------------------------------------------------|
|-----------------------------------------------------|----------------------------------------------------|
|---0----0----0000---00-------0----0----0000---00-----|---0----0----0000---00-------0----0----xxxx---xx----|
|pm .    .    ....   ..       .    .    ....   ..         .    .    ....   ..       .    .        
|
|LEAD 
|-----------------------------------------------------|----------------------------------------------------|
|-----------------------------------------------------|----------------------------------------------------|
|-----------------------------------------------------|----------------------------------------------------|
|-----------------------------------------------------|----------------------------------------------------|
|-----------------------------------------------------|----------------------------------------------------|
|---0----0----0000---00-------0----0----0000---00-----|---0----0----0000---00-------0----0----xxxx---xx----|
|pm .    .    ....   ..       .    .    ....   ..         .    .    ....   ..       .    .    







|PRE-CHORUS 2 - 1:49
|RHYTHM 
|------------------------------------------------------------------------------|
|------------------------------------------------------------------------------|        
|------------------------------------------------------------------------------|
|------------------------------------------------------------------------------|
|------------------------------------------------------------------------------|        
|---000-0h1p-0h3p0-0h5p0-0h3p0-0h1h0-----00-0h1p-00h3p0-0h5p0-0h3p0-0h1h0------|
|pm .....................................................................
|
|LEAD 
|------------------------------------------------------------------------------|
|------------------------------------------------------------------------------|        
|------------------------------------------------------------------------------|
|--000-0h8p-0h10p0-0h12p0-0h10p0-0h8h0--00-0h8p-00h10p0-0h12p0-0h10p0-0h8h0----|    
|------------------------------------------------------------------------------|        
|------------------------------------------------------------------------------| 
|pm ......................................................................
 



|RHYTHM 
|------------------------------------------------------------------------------|
|------------------------------------------------------------------------------|        
|-----------------------------------------------------------------pause--------|
|------------------------------------------------------------------------------|
|------------------------------------------------------------------------------|        
|---000-0h1p-0h3p0-0h5p0-0h3p0-0h1h0-----00-0h1p-00h3p0-0-5--------------------|
|pm .......................................................
|
|LEAD 
|------------------------------------------------------------------------------|
|------------------------------------------------------------------------------|        
|-----------------------------------------------------------------pause--------|
|--000-0h8p-0h10p0-0h12p0-0h10p0-0h8h0--00-0h8p-00h10p0-0-12-------------------|    
|------------------------------------------------------------------------------|        
|------------------------------------------------------------------------------| 
|pm .......................................................








|CHORUS 2 - 1:56
|RHYTHM 
|---------------------------------|---------------------------------|
|---------------------------------|---------------------------------|
|---------------------------------|---------------------------------|        
|---------------------------------|--5----5----5-5------------------|
|--0----0----0-0---3----3----3-3--|--3----3----3-3---5----5----5-7--|        
|--0----0----0-0---3----3----3-3--|------------------5----5----5-7--|
|
|
|LEAD
|---------------------------------|---------------------------------|
|----------------------10-----10--|---------------------------------|
|--10------10------10-----10------|-12------12--------------12------|       
|------12------12-----------------|-----14------14--------------14--|
|---------------------------------|---------------------------------|
|---------------------------------|---------------------------------|




|RHYTHM
|---------------------------------|-------------------------------------| 
|---------------------------------|-------------------------------------| 
|---------------------------------|-------------------------------------| 
|---------------------------------|--5----5----5-5----------------------|
|--0----0----0-0---3----3----3-3--|--3----3----3-3---5------5----5--3---|
|--0----0----0-0---3----3----3-3--|------------------5------5----5--3---|
|
|
|LEAD
|---------------------------------|-------------------------------------|
|----------------------10-----10--|-------------------------------------|
|--10------10------10-----10------|-12-----12---------------------------|        
|------12------12-----------------|-----14-----14----141414-14h15p14p12-|
|---------------------------------|-------------------------------------|
|---------------------------------|-------------------------------------| 





|RHYTHM 
|---------------------------------|---------------------------------|
|---------------------------------|---------------------------------|
|---------------------------------|---------------------------------|        
|---------------------------------|--5----5----5-5------------------|
|--0----0----0-0---3----3----3-3--|--3----3----3-3---5----5----5-7--|        
|--0----0----0-0---3----3----3-3--|------------------5----5----5-7--|
|
|
|LEAD
|---------------------------------|---------------------------------|
|----------------------10-----10--|---------------------------------|
|--10------10------10-----10------|-12------12--------------12------|       
|------12------12-----------------|-----14------14--------------14--|
|---------------------------------|---------------------------------|
|---------------------------------|---------------------------------|




|RHYTHM
|---------------------------------|-------------------------------------| 
|---------------------------------|-------------------------------------| 
|---------------------------------|-------------------------------------| 
|---------------------------------|--5----5----5-5----------------------|
|--0----0----0-0---3----3----3-3--|--3----3----3-3---5------5----5--3---|
|--0----0----0-0---3----3----3-3--|------------------5------5----5--3---|
|
|
|LEAD
|---------------------------------|-------------------------------------|
|----------------------10-----10--|-------------------------------------|
|--10------10------10-----10------|-12-----12---------------------------|        
|------12------12-----------------|-----14-----14----141414-14h15p14p12-|
|---------------------------------|-------------------------------------|
|---------------------------------|-------------------------------------| 






|VERSE 3 - 2:24
|RHYTHM 
|-----------------------------------------------------|----------------------------------------------------|
|-----------------------------------------------------|----------------------------------------------------|
|-----------------------------------------------------|----------------------------------------------------|
|---------------pause---------------------------------|---------------pause--------------------------------|
|-----------------------------------12-10-8--10-8-7---|---------------------------------------3----5-------|
|----00000-----------------00000----------------------|----00000-----------------00000--------3----5-------|
|pm  .....                 .....                           .....                 .....
|
|LEAD 
|-----------------------------------------------------|----------------------------------------------------|
|-----------------------------------------------------|----------------------------------------------------|
|-----------------------------------------------------|---------------------------------------10---12------|
|---------------pause--------------14-12-10--12-10-9--|---------------pause--------------------------------|
|-----------------------------------------------------|---------------------------------------8----10------|
|----00000-----------------00000----------------------|----00000-----------------00000---------------------|
|pm  .....                 .....                           .....                 .....



|RHYTHM 
|-----------------------------------------------------|----------------------------------------------------|
|-----------------------------------------------------|----------------------------------------------------|
|-----------------------------------------------------|----------------------------------------------------|
|--------------pause----------------------------------|---------------pause--------------------------------|
|-----------------------------------12-10-8--10-8-7---|---------------------------------------3-----5------|
|----00000-----------------00000----------------------|----00000-----------------00000--------3-----5------|
|pm  .....                 .....                           .....                 .....
|
|LEAD 
|-----------------------------------------------------|----------------------------------------------------|
|-----------------------------------------------------|----------------------------------------------------|
|-----------------------------------------------------|---------------------------------------10----12-----|
|--------------pause---------------14-12-10--12-10-9--|---------------pause--------------------------------|
|-----------------------------------------------------|---------------------------------------8-----10-----|
|----00000-----------------00000----------------------|----00000-----------------00000---------------------|
|pm  .....                 .....                           .....                 .....




 



|OUTRO: Distorted piano arranged for guitar - 2:37 
|---------------------------------|---------------------------------|
|----------------------10-----10--|---------------------------------|
|--10------10------10-----10------|-12------12------12------12------|        
|------12------12-----------------|-----14------14------14------14--|  Repeat 
|---------------------------------|---------------------------------|
|---------------------------------|---------------------------------|






|END
|ALL MUSIC WRITTEN BY LOSING SEPTEMBER






  
Добавлено: 22.02.2016
Другие материалы по этой песне:
  • Аккорды и текст

Страница создана 22.02.2016
http://primanota.ru/losing-september/american-hero-chords.htm
Привет, Гость.
Предлагаем пройти революционный курс по гитаре.
Подарок от PrimaNota.Ru, забирай!