PrimaNota.ru - самый крупный в мире бесплатный архив песенных текстов, аккордов, табулатур и нот


Loser - Disposable Sunshine - таба, бас-таба, видео

Регистрация Запомнить меня
Войти через:  Facebook Google Twitter Vk Yandex Mail.ru

Loser - Disposable Sunshine - таба, бас-таба, видео

Печатать
Просмотров: 141
“Disposable Sunshine” by: Loser
www.losernation.com

Tabbed by: Chris Gill
Email: CGill1403@aol.com

Gtr1- x1
E|--0-0-0-0-0-0-0-0-0-0-0-0-2-3-2-0-0-0-0-0-0-0-0-0-0-0-0-0-2-3-2-0--|
B|--------------------------0-0-0-0-------------------------0-0-0-0--|
G|-------------------------------------------------------------------|
D|-------------------------------------------------------------------|
A|-------------------------------------------------------------------|
D|-------------------------------------------------------------------|  
Gtr2- (nothing)


Gtr1- x2
E|--0-0-0-0-0-0-0-0-0-0-0-0-0-0-0-0-0-0-0-0-0-0-0-0-0-0-0-0-2-3-2-0--|
B|----------------------------------------------------------0-0-0-0--|
G|-------------------------------------------------------------------|
D|-------------------------------------------------------------------|
A|-------------------------------------------------------------------|
D|-------------------------------------------------------------------|  
Gtr2- x2
E|-------------------------------------------------------------------|
B|-------------------------------------------------------------------|
G|-------------------------------------------------------------------|
D|--2-2-2-2-2-2-2-2-0-0-0-0-0-0-0-0-5-5-5-5-5-5-5-5-7-7-7-7-7-7-7-7--|
A|--2-2-2-2-2-2-2-2-0-0-0-0-0-0-0-0-5-5-5-5-5-5-5-5-7-7-7-7-7-7-7-7--|
D|--2-2-2-2-2-2-2-2-0-0-0-0-0-0-0-0-5-5-5-5-5-5-5-5-7-7-7-7-7-7-7-7--|


Gtr1 & Gtr2- x1
E|--------------------------------------------------------------------------|
B|--------------------------------------------------------------------------|
G|--------------------------------------------------------------------------|
D|--2-2-7p0-5--2--2p0--2-2-7p0-5--2--2p0--2-2-7p0-5--2--2p0--2-2-5-7^-5-7-5-|
A|--2-2-7p0-5--2--2p0--2-2-7p0-5--2--2p0--2-2-7p0-5--2--2p0--2-2-5-7^-5-7-5-|
D|--2-2-7p0-5--2--2p0--2-2-7p0-5--2--2p0--2-2-7p0-5--2--2p0--2-2-5-7^-5-7-5-|


Gtr1- x2
E|-------------------------------------------------------------------|
B|-------------------------------------------------------------------|
G|-------------------------------------------------------------------|
D|--5-5-5---5-5-5---5-4-4---4-4-4---4-2-2---2-2-2--2-2-2-5-7^-5-7-5--|
A|--5-5-5---5-5-5---5-4-4---4-4-4---4-2-2---2-2-2--2-2-2-5-7^-5-7-5--|
D|--5-5-5---5-5-5---5-4-4---4-4-4---4-2-2---2-2-2--2-2-2-5-7^-5-7-5--|
slightPM.............................................
Gtr2- (nothing)


Gtr1- x2
E|-----------------------------------------------------------------------------|
B|-----------------------------------------------------------------------------|
G|-----------------------------------------------------------------------------|
D|--0/5--5--5--5--5\---0/5--5--5--5--5\---0/4--4--4--4--4\---0/4--4--4--4--4\--|
A|--0/5--5--5--5--5\---0/5--5--5--5--5\---0/4--4--4--4--4\---0/4--4--4--4--4\--|
D|--0/5--5--5--5--5\---0/5--5--5--5--5\---0/4--4--4--4--4\---0/4--4--4--4--4\--|
Gtr2- (nothing)


Gtr1- x2
E|--0-0-0-0-0-0-0-0-0-0-0-0-0-0-0-0-0-0-0-0-0-0-0-0-0-0-0-0-2-3-2-0--|
B|----------------------------------------------------------0-0-0-0--|
G|-------------------------------------------------------------------|
D|-------------------------------------------------------------------|
A|-------------------------------------------------------------------|
D|-------------------------------------------------------------------|  
Gtr2- x2
E|-------------------------------------------------------------------|
B|-------------------------------------------------------------------|
G|-------------------------------------------------------------------|
D|--2-2-2-2-2-2-2-2-0-0-0-0-0-0-0-0-5-5-5-5-5-5-5-5-7-7-7-7-7-7-7-7--|
A|--2-2-2-2-2-2-2-2-0-0-0-0-0-0-0-0-5-5-5-5-5-5-5-5-7-7-7-7-7-7-7-7--|
D|--2-2-2-2-2-2-2-2-0-0-0-0-0-0-0-0-5-5-5-5-5-5-5-5-7-7-7-7-7-7-7-7--|


Gtr1 & Gtr2- x1
E|--------------------------------------------------------------------------|
B|--------------------------------------------------------------------------|
G|--------------------------------------------------------------------------|
D|--2-2-7p0-5--2--2p0--2-2-7p0-5--2--2p0--2-2-7p0-5--2--2p0--2-2-5-7^-5-7-5-|
A|--2-2-7p0-5--2--2p0--2-2-7p0-5--2--2p0--2-2-7p0-5--2--2p0--2-2-5-7^-5-7-5-|
D|--2-2-7p0-5--2--2p0--2-2-7p0-5--2--2p0--2-2-7p0-5--2--2p0--2-2-5-7^-5-7-5-|


Gtr1- x2
E|-------------------------------------------------------------------|
B|-------------------------------------------------------------------|
G|-------------------------------------------------------------------|
D|--5-5-5---5-5-5---5-4-4---4-4-4---4-2-2---2-2-2--2-2-2-5-7^-5-7-5--|
A|--5-5-5---5-5-5---5-4-4---4-4-4---4-2-2---2-2-2--2-2-2-5-7^-5-7-5--|
D|--5-5-5---5-5-5---5-4-4---4-4-4---4-2-2---2-2-2--2-2-2-5-7^-5-7-5--|
slightPM.............................................
Gtr2- x2
E|----0-14-0-14-0--0-14-0-14-0--------0-14-0-14-0--0-------------------|
B|---------------------------------------------------------------------|
G|---------------------------------------------------------------------|
D|---------------------------------------------------------------------|
A|---------------------------------------------------------------------|
D|---------------------------------------------------------------------|        


Gtr1 & Gtr2- x2
E|-----------------------------------------------------------------------------|
B|-----------------------------------------------------------------------------|
G|-----------------------------------------------------------------------------|
D|--0/5--5--5--5--5\---0/5--5--5--5--5\---0/4--4--4--4--4\---0/4--4--4--4--4\--|
A|--0/5--5--5--5--5\---0/5--5--5--5--5\---0/4--4--4--4--4\---0/4--4--4--4--4\--|
D|--0/5--5--5--5--5\---0/5--5--5--5--5\---0/4--4--4--4--4\---0/4--4--4--4--4\--|


Gtr1- x4
E|--0-0-0-0-0-0-0-0-0-0-0-0-0-0-0-0-0-0-0-0-0-0-0-0-0-0-0-0-2-3-2-0--|
B|----------------------------------------------------------0-0-0-0--|
G|-------------------------------------------------------------------|
D|-------------------------------------------------------------------|
A|-------------------------------------------------------------------|
D|-------------------------------------------------------------------|  
Gtr2- x4
E|-------------------------------------------------------------------|
B|-------------------------------------------------------------------|
G|-------------------------------------------------------------------|
D|--2-2-2-2-2-2-2-2-0-0-0-0-0-0-0-0-5-5-5-5-5-5-5-5-7-7-7-7-7-7-7-7--|
A|--2-2-2-2-2-2-2-2-0-0-0-0-0-0-0-0-5-5-5-5-5-5-5-5-7-7-7-7-7-7-7-7--|
D|--2-2-2-2-2-2-2-2-0-0-0-0-0-0-0-0-5-5-5-5-5-5-5-5-7-7-7-7-7-7-7-7--|


Gtr1- x4
E|-----------------------------------|
B|-----------------------------------|
G|-----------------------------------|
D|--2----2-2-2-2----2-2-2-2---5-7-5--|
A|--2----2-2-2-2----2-2-2-2---5-7-5--|
D|--2----2-2-2-2----2-2-2-2---5-7-5--|  
         heavyPM...........
Gtr 2- x2 start the third time through
E|--0-0-0-0-0-0-0-0-0-0-0-0-2-3-2-0--|
B|--------------------------0-0-0-0--|
G|-----------------------------------|
D|-----------------------------------|
A|-----------------------------------|
D|-----------------------------------|

        
Gtr1- w/ heavy heavy dist x1
E|--------------------------------------------------------------------------|
B|--------------------------------------------------------------------------|
G|--------------------------------------------------------------------------|
D|-----------------------------------------------------------2-2-5-7^-5-7-5-|
A|-----------------------------------------------------------2-2-5-7^-5-7-5-|
D|--2-2-7p0-5--2--2p0--2-2-7p0-5--2--2p0--2-2-7p0-5--2--2p0--2-2-5-7^-5-7-5-|
Gtr2- let flanger sound x1
E|--------------------------------------------------------------------------|
B|--------------------------------------------------------------------------|
G|--------------------------------------------------------------------------|
D|-----------------------------------------------------------2-2-5-7^-5-7-5-|
A|-----------------------------------------------------------2-2-5-7^-5-7-5-|
D|-----------------------------------------------------------2-2-5-7^-5-7-5-|


Gtr1- x4
E|--0-0-0-0-0-0-0-0-0-0-0-0-0-0-0-0-0-0-0-0-0-0-0-0-0-0-0-0-2-3-2-0--|
B|----------------------------------------------------------0-0-0-0--|
G|-------------------------------------------------------------------|
D|-------------------------------------------------------------------|
A|-------------------------------------------------------------------|
D|-------------------------------------------------------------------|  
Gtr2- x4
E|-------------------------------------------------------------------|
B|-------------------------------------------------------------------|
G|-------------------------------------------------------------------|
D|--2-2-2-2-2-2-2-2-0-0-0-0-0-0-0-0-5-5-5-5-5-5-5-5-7-7-7-7-7-7-7-7--|
A|--2-2-2-2-2-2-2-2-0-0-0-0-0-0-0-0-5-5-5-5-5-5-5-5-7-7-7-7-7-7-7-7--|
D|--2-2-2-2-2-2-2-2-0-0-0-0-0-0-0-0-5-5-5-5-5-5-5-5-7-7-7-7-7-7-7-7--|


Gtr1 & Gtr2- x1
E|--------------------------------------------------------------------------|
B|--------------------------------------------------------------------------|
G|--------------------------------------------------------------------------|
D|--2-2-7p0-5--2--2p0--2-2-7p0-5--2--2p0--2-2-7p0-5--2--2p0--2-2-5-7^-5-7-5-|
A|--2-2-7p0-5--2--2p0--2-2-7p0-5--2--2p0--2-2-7p0-5--2--2p0--2-2-5-7^-5-7-5-|
D|--2-2-7p0-5--2--2p0--2-2-7p0-5--2--2p0--2-2-7p0-5--2--2p0--2-2-5-7^-5-7-5-|

Добавлено: 26.07.2012
Другие материалы по этой песне:

Страница создана 11.05.2012
http://primanota.ru/loser/disposable-sunshine-chords.htm
Привет, Гость.
Предлагаем пройти революционный курс по гитаре.
Подарок от PrimaNota.Ru, забирай!