PrimaNota.ru - самый крупный в мире бесплатный архив песенных текстов, аккордов, табулатур и нот


Los Violadores - El Ultimo Hombre - бас-таба, видео

Регистрация Запомнить меня
Войти через:  Facebook Google Twitter Vk Yandex Mail.ru

Los Violadores - El Ultimo Hombre - бас-таба, видео

Печатать
Просмотров: 74
Уроки эстрадного вокала в Санкт-Петербурге
"El último hombre"
"Los Violadores"
Album: "fuera de sektor"

https://www.youtube.com/watch?v=p29WPA6UN1Y

Tab por kilterry
marcelorocket@hotmail.com

Bajo

Intro:

G-|---------|--------------------------|                  |-------|
D-|---------|--------------------------|                  |-------|
A-|---------|----------3-3-3-8-8-8-7-5-|} repetir 3 veces |-------|
E-|----5----|----1---------------------|                  |---5---|
  
   (n veces)|(n veces)                                    (n veces)

G-|-------------------|----------------------|
D-|-------------------|----------------------|
A-|---3-3-----3-3-----|----------------3-5-7-|} repetir 2 veces
E-|-5-----5-5-----5-5-|-1--3-3--5-5--5-------|

1er verso:

"estoy muy solo, en mi nave espacial..."

G-|----------------------|----------------------|
D-|----------------------|----------------------|
A-|----3-3------3--2-3-2-|----------------------|} repetir 4 veces
E-|-5------5-5-----------|-1--1-1--1-1--1-3-3-5-|

la última nota anterior (5E), engancharla con la siguiente secuencia

G-|-------------------|----------------------|
D-|-------------------|----------------------|
A-|---3-3-----3-3-----|----------------3-5-7-|} repetir 2 veces
E-|-5-----5-5-----5-5-|-1--3-3--5-5--5-------|

"no tengo destino..."

G-|----------------------|----------------------|
D-|----------------------|----------------------|
A-|----3-3------3--2-3-2-|----------------------|} repetir 4 veces
E-|-5------5-5-----------|-1--1-1--1-1--1-3-3-5-|

"mi instinto del poder..."                      

G-|----------------------|----------------------|-------|---------|-------|
D-|----------------------|----------------------|-------|---------|-------|
A-|----3-3------3--2-3-2-|----------------------|-------|---------|-------|
E-|-5------5-5-----------|-1--1-1--1-1--1-1-1---|---3---|----1----|---3---|

                                               (n veces)|(n veces)|(n veces)

"en el espacio interior..."

G-|-------2-----|
D-|-----3---3---|
A-|---3-------3-|} 3 veces
E-|-1-----------|

G-|-------------------|----------------------|                  |---------|
D-|-------------------|----------------------|                  |---------|
A-|---3-3-----3-3-----|----------------3-5-7-|} repetir 2 veces |---------|
E-|-5-----5-5-----5-5-|-1--3-3--5-5--5-------|                  |----5----|

                                                                 (n veces)
2do verso:

"oh, ya el círculo..."

G-|----------------------|----------------------|
D-|----------------------|----------------------|
A-|----3-3------3--2-3-2-|----------------------|} repetir 3 veces
E-|-5------5-5-----------|-1--1-1--1-1--1-3-3-5-|

                                               "yo soy el agua y el fuego..."

G-|----------------------|--------------------|-----------------------------|
D-|----------------------|--------------------|-----------------------------|
A-|----3-3------3--2-3-2-|--------------------|-----------3-----------------|
E-|-5------5-5-----------|-1--1-1--1-1--1-1-1-|---5---1-------3---1---3---1-|

                                              (tocar varias veces cada nota)

"yo soy el último hombre..."

G-|-------|
D-|-------|
A-|-------|
E-|--4-5--|

solo de  guitarra:

G-|------------------|-------------------|           |-------------|---------|----------|-------|
D-|------------------|-------------------|           |-------------|---------|----------|-------|
A-|------------------|-8--8-8-88888-77-5-|} (2 veces)|-------------|-3-33-33-|-888-77-5-|-------|
E-|-5--5-5-55555-5-5-|-------------------|           |-1-11-11-111-|---------|----------|---5---|
    
                                                                                        (n veces)


G-|-----------------|-----------------|-------|---------------------------------|
D-|-----------------|-----------------|-------|---------------------------------|
A-|-----------------|-3-33-33-888-7-5-|-------|-----------------3-33-33-888-7-5-|
E-|-1-11-1111-11-11-|-----------------|---5---|-1-11-11-1-11-11-----------------|

                                      (n veces)


3er verso:

"estoy muy solo, en mi nave espacial..."

G-|----------------------|----------------------|
D-|----------------------|----------------------|
A-|----3-3------3--2-3-2-|----------------------|} repetir 3 veces
E-|-5------5-5-----------|-1--1-1--1-1--1-3-3-5-|

G-|----------------------|----------------------|-------|---------|-------|
D-|----------------------|----------------------|-------|---------|-------|
A-|----3-3------3--2-3-2-|----------------------|-------|---------|-------|
E-|-5------5-5-----------|-1--1-1--1-1--1-1-1---|---3---|----1----|---3---|

                                               (n veces)|(n veces)|(n veces)
"en el espacio interior..."

G-|-------2-----|
D-|-----3---3---|
A-|---3-------3-|} 3 veces
E-|-1-----------|

final:

G-|--------|
D-|--------|
A-|-----2--|
E-|-5-0----|
Добавлено: 23.10.2013
Другие материалы по этой песне:
  • Аккорды и текст

Страница создана 23.10.2013
http://primanota.ru/los-violadores/el-ultimo-hombre-chords.htm
Привет, Гость.
Предлагаем пройти революционный курс по гитаре.
Подарок от PrimaNota.Ru, забирай!