PrimaNota.ru - самый крупный в мире бесплатный архив песенных текстов, аккордов, табулатур и нот


Los Tri-O - Engañada - таба, видео

Регистрация Запомнить меня
Войти через:  Facebook Google Twitter Vk Yandex Mail.ru

Los Tri-O - Engañada - таба, видео

Печатать
Просмотров: 53
Empieza con un apagado que se logra con la mano derecha
|----------------|----------------|------------------|--------------------------|
|--0-1-3h5-3-3h5-|--3-3h5-3-5-3h5-|3-1-0-0-0-1-1-3h5-|5-5-3h5-5-3-3h5-5-3-3h5-5-|
|--1-2-4h5-2-4h5-|--4-4h5-4-5-4h5-|4-2-1-1-1-2-2-4h5-|5-4-4h5-5-4-4h5-5-4-4h5-5-|
|----------------|----------------|------------------|--------------------------|
|----------------|----------------|------------------|--------------------------|
|----------------|----------------|------------------|--------------------------|

|------0-0-0-1-|1-3h5-3-3h5-3-3h5-3-|3h5-3-3h5-3-1---0---0-|
|5-3-1-2-2-2-3-|3-3h5-5-3h5-5-3h5-5-|3h5-5-3h5-5-3-3---3---|
|5-4-2---------|--------------------|----------------------|
|--------------|--------------------|----------------------|
|--------------|--------------------|----------------------|
|--------------|--------------------|----------------------|

|1-3-1-3-1-0---1-0---0-------------|----------------0---0---|
|------------3-----3---3-1---------|----------------1---1---|
|--------------------------2-1h2p1-|------------------------|
|----------------------------------|3-2-0h2p0-------------2-|
|----------------------------------|----------3-2-0---3-----|
|----------------------------------|------------------------|

|0---|
|1---|
|--2-|
|----|
|----|
|----|


Intermedio:

|----------------|------------------------|--------------------|
|----------------|----------------1-----1-|----1-----1---------|
|------1-----1---|----1-----1-----2-----2-|----2-----2-----1---|
|--1-2-2-1-2-2-1-|--2-2-1-2-2-1-2---1-2---|1-2---1-2---1-2-2-1-|
|----------------|------------------------|--------------------|
|----------------|------------------------|--------------------|

|------------------|0-0-0-0-0-0-1-1-2-2-|3h5-5-3-3h5-5-3h5-3h5-3h|
|----------------1-|2-2-2-2-2-2-3-3-4-4-|3h5-5-5-3h5-5-3h5-3h5-3h|
|--1-----1-----1-2-|--------------------|------------------------|
|2-2-1-2-2-1-2-2---|--------------------|------------------------|
|------------------|--------------------|------------------------|
|------------------|--------------------|------------------------|

|5-3h5-3-1---0---0-1-3-|1-3-1-0---1-0---0-------------|----------------0---0---0-|
|5-3h5-5-3-3---3-------|--------3-----3---3-1---------|----------------1---1---1-|
|----------------------|----------------------2-1h2p1-|--------------------------|
|----------------------|------------------------------|3-2-0h2p0-------------2---|
|----------------------|------------------------------|----------3-2-0---3-------|
|----------------------|------------------------------|--------------------------|

Para lograr este efecto se toca la primera cuerda con el dedo indice y el pulgar 2a.y 3
|--0-0-0-0-0---0-0-0---0-|0-0---0-0-0---0-0-0---0-0-0-|--0-0-0---0-0-0---0-0-0---0-0---|
|------------12------12--|----12------12------13------|13------13------13------12----12|
|2-----------13------13--|----13------13------14------|14------14------14------13----13|
|------------------------|----------------------------|--------------------------------|
|------------------------|----------------------------|--------------------------------|
|------------------------|----------------------------|--------------------------------|

|0-0---0-0---0-0---0-0---0-0---0-0---0-0---|0---1---2---3---|
|----12----12----12----12----12----12----13|--2---3---4---5-|
|----13----13----13----13----13----13----14|----------------|
|------------------------------------------|----------------|
|------------------------------------------|----------------|
|------------------------------------------|----------------|

|2---3---2---3---2---3---5---|5---5---3---1---|--0---0-1-3-1-3-1-0---1-0---0-------|
|--4---5---4---5---4---5---5-|--5---5---5---3-|3---3---------------3-----3---3-1---|
|----------------------------|----------------|----------------------------------2-|
|----------------------------|----------------|------------------------------------|
|----------------------------|----------------|------------------------------------|
|----------------------------|----------------|------------------------------------|

|----------------------0---|0---0---0-0-0-0-0-1310|0-----13100-----13100-----13100-----|
|----------------------1---|1---1-----------------|--129-------129-------129-------129-|
|1h2p1---------------------|------2---------------|------------------------------------|
|------3-2-0h2p0-----------|--2-------------------|------------------------------------|
|----------------3-2-0---3-|----------------------|------------------------------------|
|--------------------------|----------------------|------------------------------------|

|128-0-----128-0-----128-0-----128-0-|----107-0-----107-0-----107-0-----|
|------107-------107-------107-------|107-------9-6-------9-6-------9-6-|
|------------------------------------|----------------------------------|
|------------------------------------|----------------------------------|
|------------------------------------|----------------------------------|
|------------------------------------|----------------------------------|

|107-0-----8-5h8p5-0-----------|5-6-7-8-5-----5---6---7---|5---7---7-8-------8-|
|------9-6-----------1---------|----------6-----6---7---8-|--6---8-8---8---8---|
|----------------------2-------|------------7-------------|--------------9-----|
|------------------------2-----|--------------------------|--------------------|
|--------------------------3/12|--------------------------|--------------------|
|------------------------------|--------------------------|--------------------|

|1010121212121212--121212|--1212--121212--12124/5-0-|------------|
|----------------9-------|9-----9-------9-----------|1-----------|
|------------------------|--------------------------|--2---------|
|------------------------|--------------------------|----2-------|
|------------------------|--------------------------|------0-3/12|
|------------------------|--------------------------|------------|

NOtas:  h = ligadura
        / = arrastre
Добавлено: 23.05.2016
Другие материалы по этой песне:
  • Аккорды и текст

Страница создана 23.05.2016
http://primanota.ru/los-tri-o/enganada-chords.htm
Привет, Гость.
Предлагаем пройти революционный курс по гитаре.
Подарок от PrimaNota.Ru, забирай!