PrimaNota.ru - самый крупный в мире бесплатный архив песенных текстов, аккордов, табулатур и нот


Los Tres - Torre de babel - аккорды и текст, видео

Регистрация Запомнить меня
Войти через:  Facebook Google Twitter Vk Yandex Mail.ru

Los Tres - Torre de babel - аккорды и текст, видео

Печатать
Просмотров: 39
Torre de babel
Los Tres
Intro:
     A7                            G7 
e|--------9-7---|----------9-7--|-------10^9-10^9-10^9-10^9--7-9-----| 
B|--------------|---------------|------------------------------------| 
G|---4/9--------|---4/9---------|---4/9------------------------------| 
D|--------------|---------------|------------------------------------| 
A|--------------|---------------|------------------------------------| 
E|--------------|---------------|------------------------------------| 
 
A7   G7 
 
A7 
En la Torre de Babel 
G7                    A7 
vivían cincuenta cigarros 
vivían amontonados 
G7                 A7 
hechos todos de papel 
Uno a uno alineados 
G7                A7 
todos muy bien formados 
 El más pequeño era aquel 
G7 
y se llamaba Gabriel 
 
Intro 
 
A7 
Tabaco fino, algodones 
G7            A7 
iban a ver el río 
Iban cantando canciones, 
G7          A7 
muertos de frío 
La pasión de Gabriel 
G7               A7 
era nadar en el río 
Le contó de esto a su tío 
G7 
que era un cigarro de miel 
 
Intermedio:
   Am       F       E      E7 
e|---------------------------------| 
B|--1-1-0-1-3-1-0-1-0--------------| 
G|--2------------------------------| 
D|--2------------------------------|   x2 
A|---------------------------------| 
E|---------------------------------| 
 
     Fm    Em   D#m  Dm     C - D - C - D - E7 
e|---------------------------------------| 
B|---6---6-5---5-4---4-3----1-3-1-3-3^5--| 
G|-----5-----4-----3---------------------| 
D|---------------------------------------| 
A|---------------------------------------| 
E|---------------------------------------| 
 
Intro 
 
A7 
Su tío que era muy viejo 
G7             A7 
no le puso reparos 
y cuendo llegó el habano 
G7                 A7 
forrado entero de café 
"Dónde se metió Gabriel" 
G7                     A7 
preguntó inquieto el habano 
"Se fue con otros cigarros 
G7              A7 
a ver el río correr" 
"No lo puedo creer. 
G7                 A7 
Eres muy mal ciudadano, 
pues tu sobrino y hermano 
G7 
tal vez nunca pueda volver" 
 
   Am       F       E      E7 
e|---------------------------------| 
B|--1-1-0-1-3-1-0-1-0--------------| 
G|--2------------------------------| 
D|--2------------------------------|    x2 
A|---------------------------------| 
E|---------------------------------| 
 
     Fm    Em   D#m  Dm     C - D - C - D - E7 
e|---------------------------------------| 
B|---6---6-5---5-4---4-3----1-3-1-3-3^5--| 
G|-----5-----4-----3---------------------| 
D|---------------------------------------| 
A|---------------------------------------| 
E|---------------------------------------| 
 
Solo. 
 
A7 
Cuando llegó el habano 
G7              A7 
a la orilla del río 
vió un pequeño cigarro 
G7                   A7 
muerto, abierto & tendido. 
Estaba todo mojado 
G7              A7 
sin señales de vida. 
El tabaco se desprendía, 
G7                A7 
quedaba desparramado 
Tristeza, llantos, lamentos 
G7                     A7 
reinarán desde hoy en Babel. 
Se nos ha muerto Gabriel, 
G7 
todo ha quedado en silencio. 
 
 Am    F     E   E7 
Solamente un buen fuego 
  Am       F         E   E7 
puede dar muerte a un cigarro 
 Fm    Em          D#m    Dm     C - D - C - D - E7 
pero si muere mojado es igual 
C  D  C  D  E7 
que si a un hombre 
lo mataran colgado 
colgado 
 
Outro: A7 G7   
Добавлено: 26.06.2016
Другие материалы по этой песне:
  • Аккорды и текст

Страница создана 26.06.2016
http://primanota.ru/los-tres/torre-de-babel-chords.htm
Привет, Гость.
Предлагаем пройти революционный курс по гитаре.
Подарок от PrimaNota.Ru, забирай!