PrimaNota.ru - самый крупный в мире бесплатный архив песенных текстов, аккордов, табулатур и нот


Los Tres - The Thrill Is Gone - бас-таба, видео

Регистрация Запомнить меня
Войти через:  Facebook Google Twitter Vk Yandex Mail.ru

Los Tres - The Thrill Is Gone - бас-таба, видео

Печатать
Просмотров: 105
   ------------------------------------------------------------------------
			    THE THRILL IS GONE - LOS TRES
----------------------------------------------------------------------------

Tabbed By : Jorge
e-mail: jofer.st@gmail.com

Tuning: Am

G|-------------------------------------------------------------------------|
D|----------------5-----------5------------5-----------5-------------------|
A|-----------5-7---------5-7---7------5-7---------5-7---7------------------|
E|-5----5--5-------5---5--------5---5-------5---5--------------------------|

G|------------5-----------5------------------------------------------------|
D|-------5-7---------5-7---7----------5-----------5------------------------|
A|-5---5-------5---5--------------5-7--------5-7---7-----------------------|
E|--------------------------5---5------5---5-------------------------------|

G|-------------------------------------------------------------------------|
D|----------------------------------5--------------------------------------|
A|-8--888-88-7-57-353-53-------5-7--------7--------------------------------|
E|-----------------------5---5-------5-------------------------------------|

Verso 1 y 2
G|-------------------------------------------------------------------------|
D|-----------5-----------5------------5-----------5------------------------|
A|------5-7---------5-7---7------5-7---------5-7---7-----------------------|
E|-5--5-------5---5--------5---5-------5---5-------------------------------|

G|------------5-----------5------------------------------------------------|
D|-------5-7---------5-7---7----------5-----------5------------------------|
A|-5---5-------5---5--------------5-7--------5-7---7-----------------------|
E|--------------------------5---5------5---5-------------------------------|

G|-------------------------------------------------------------------------|
D|----------------------------------5--------------------------------------|
A|-8--888-88-7-57-353-53-------5-7----567-5-7-5----------------------------|
E|-----------------------5---5-------5-------------------------------------|

Solo de Guitarra:
G|-------------------------------------------------------5-----------------|
D|-----------5----------------------5---------7-----5-7--------------------|
A|------5-7-----5-5h77-5h7---5-5h77----5-5h77--75-5-------5----------------|
E|-5--5-------5------------5---------5-------------------------------------|

G|-------------------------------------------------------------------------|
D|--5-7-5------------------------------------------------------------------|
A|-5-5-5-5h7--5-5h77-5h7---5-7-5-5h7-8--888-88-7-57-353--------------------|
E|----------5-----------5-5-5-5-------------------------5------------------|

G|-------------------------------------------------------------------------|
D|--------5----------------------------------------------------------------|
A|---5-7--------77---------------------------------------------------------|
E|-5-------5-5-------------------------------------------------------------|



| /  slide up
| \  slide down
| h  hammer-on
| p  pull-off
| ~  vibrato
| +  harmonic
| x  Mute note
===============================================================================
                  
El siguiente verso sigue como el inicio, y los versos finales como el solo de guitarra.

    Creo que la transcripción está 98% correcta.
    Escuchar para el timing
Добавлено: 27.06.2012
Другие материалы по этой песне:
  • Аккорды и текст

Страница создана 27.06.2012
http://primanota.ru/los-tres/the-thrill-is-gone-chords.htm
Привет, Гость.
Предлагаем пройти революционный курс по гитаре.
Подарок от PrimaNota.Ru, забирай!