PrimaNota.ru - самый крупный в мире бесплатный архив песенных текстов, аккордов, табулатур и нот


Los Tipitos - Algo - таба, видео

Регистрация Запомнить меня
Войти через:  Facebook Google Twitter Vk Yandex Mail.ru

Los Tipitos - Algo - таба, видео

Печатать
Просмотров: 95
-------------------------------------------------------------------------------
                             ALGO - Los Tipitos
-------------------------------------------------------------------------------
Tabbed by: Matias Espina
Email: matias_elkabezon@hotmail.com

Intro
   A           F#m              E                     (A)
E----------5-------5------     -----------------------------|
B--2/3-2/3-----2/3---3-2--     -333-222-000-333-22-00-------|
G------------------------- x3  -----------------------(2)---|
D-------------------------     -----------------------------|
A-------------------------     -----------------------------|
E-------------------------     -----------------------------|

                      E
Ya no quiero esperar más
                   A
tengo miedo que pasó
                     E
algo inesperado, el centro
                   A
siempre es impredecible
                   E
tengo miedo que pasó
                    A
lo que no quiero decir
              Bm
si tan solo cruzaras
      D            E
la puerta en este instante
   D              E
delante de este fuego
     D          E
que miro sin remedio
          D            A
hay una llama que te llama
       E
sin parar

E                    A
   Una vela es para mi
                     E
otra vela es p'al Señor
                   A
y pa' María santísima
                  E
que el Señor y María
                   A
te cuiden también hoy
               Bm
que no estoy cerca
         D          E
y te deje llevar por otras manos
   D             E
mirando como un niño
   D           E
dejé caer la arena
       D                  A        E
tristemente entre los dedos    ahahah.......

E
Algo que viene y que pega

y que duele y que...

A                 F#m
Algo me tiene que despabilar
A               F#m
Algo que despabilar
C#m                      D
     La suerte va a cambiar
C#m                    D
     Hace cuanto no ganas ( X2)

una...

   A           F#m              E                      A*
E----------5-------5------     -----------------------------|
B--2/3-2/3-----2/3---3-2--     -333-222-000-333-22-00-------|
G------------------------- x2  -----------------------(2)---|
D-------------------------     -----------------------------|
A-------------------------     -----------------------------|
E-------------------------     -----------------------------|
                  A*(el mismo de la tab)
Una vela es para mi
                     E
otra vela es p'al Señor
                   A
y pa' María santísima
                  E
que el Señor y María
                   A
te cuiden también hoy
               Bm
que no estoy cerca
         D          E
y te deje llevar por otras manos
   D             E
mirando como un niño
   D           E
dejé caer la arena
       D                  A        E
tristemente entre los dedos    ahahah.......

E
Algo que viene y que pega

y que duele y que...

A                 F#m
Algo me tiene que despabilar
A               F#m
Algo que despabilar
C#m                      D
     La suerte va a cambiar
C#m                    D
     Hace cuanto no ganas ( X 2)


   A           F#m              E
E----------5-------5------     -----------------------|
B--2/3-2/3-----2/3---3-2--     -333-222-000-333-22-00-|
G------------------------- x2  -----------------------|
D-------------------------     -----------------------|
A-------------------------     -----------------------|
E-------------------------     -----------------------|
  Unaaaaaaaaaaaaaaaaaaa...     ...aaaaaaaaaaaaaaaaaa...
   A           F#m
E----------5-------5------|
B--2/3-2/3-----2/3---3-2--|
G-------------------------| x3   [A]
D-------------------------|
A-------------------------|
E-------------------------|
  Unaaaaaaaaaaaaaaaaaaa...      Unaaaaaaaaaaaaaaaa....

Eso es todo, espero que les guste este temazo de los tipitos.
Nos vemos.
Добавлено: 25.06.2012
Другие материалы по этой песне:
  • Аккорды и текст

Страница создана 25.06.2012
http://primanota.ru/los-tipitos/algo-chords.htm
Привет, Гость.
Предлагаем пройти революционный курс по гитаре.
Подарок от PrimaNota.Ru, забирай!