PrimaNota.ru - самый крупный в мире бесплатный архив песенных текстов, аккордов, табулатур и нот


Los Terricolas - Entrega Total - таба, видео

Регистрация Запомнить меня
Войти через:  Facebook Google Twitter Vk Yandex Mail.ru

Los Terricolas - Entrega Total - таба, видео

Печатать
Просмотров: 171
Уроки эстрадного вокала в Санкт-Петербурге
HOLA DE NUEVO. AQUI LES DEJO ESTA CANCION DE LOS TERRICOLAS QUE PARA
MI ES LA MEJOR VERSION DE TODAS LAS QUE ESCUCHE. LOS DIBUJOS SON DE
TROMPETA Y SAXOFON SE LAS RECOMIENDO.
DISFRUTENLA.

ACORDES

     F  Dm  Gm   C  G#  Fm  Bbm Eb7 F7
e|---1---1---3---0---4---1---1---3---1---|
B|---1---3---3---1---4---1---2---2---4---|
G|---2---2---3---0---5---1---3---3---2---|
D|---3---0---5---2---6---3---3---1---1---|
A|---3---0---5---3---6---3---1---1---3---|
E|---1---x---3---3---4---1---1---x---1---|


Intro:

   F          Dm      Gm        C
e|------------10------13--12-10---------|
B|---------10-----10------------11------|
G|---10-12------------------------------|
D|--------------------------------------|
A|--------------------------------------|
E|--------------------------------------|


   F          Dm      Gm        C
e|------------10------13--12-10-12------|
B|---------10-----10--------------------|
G|---10-12------------------------------|
D|--------------------------------------|
A|--------------------------------------|
E|--------------------------------------|


  F     Dm
  Esta ves
Gm         C           F      Dm
  ya no soporto la terrible soledad
Gm      C              F
  yo no te pongo condición
Dm          Gm
  harás conmigo
       C              F     Dm    Gm   C
  lo que quieras bien o mal.


e|---10---------------13-12---10--------|
B|------13---10-10-10------------13-----|
G|--------------------------------------|
D|--------------------------------------|
A|--------------------------------------|
E|--------------------------------------|

ESTO SE TOCA MIENTRAS EL SIGUIENTE VERSO.

e|-------------13-12-10-12-10-----------|
B|---10---13----------------------------|
G|--------------------------------------|
D|--------------------------------------|
A|--------------------------------------|
E|--------------------------------------|

e|--------10---13-12-10-12-10-------10----------|
B|---13-------------------------13------11--13--|
G|----------------------------------------------|
D|----------------------------------------------|
A|----------------------------------------------|
E|----------------------------------------------|


    F    Dm
  Llévame
Gm         C               F        Dm
  de ser posible hasta la misma eternidad
Gm       C                F
  donde perdure nuestro amor
Dm          Gm
  porque tú eres
        C      F     F7 Bb-Eb7
  toda mi felicidad.


e|--------------------------------------|
B|---------4-2---4----------------------|
G|-------2------------------------------|
D|---3-5--------------------------------|
A|--------------------------------------|
E|--------------------------------------|


    G#           Fm
  Llévame, si quieres hasta
            Bbm         Eb7
  hasta el fondo del dolor
   G#           Fm
  hazlo, como quieras
          Bbm        Eb7
  por maldad o por amor.


     F       Dm
  Pero esta ves
Gm             C                 F       Dm
  quiero entregarme a ti en una forma total


e|------------10------------------------|
B|---------10----13---11-10-11---13-----|
G|---10-12------------------------------|
D|--------------------------------------|
A|--------------------------------------|
E|--------------------------------------|


Gm       C             F
  no con un beso nada más
Dm           Gm
  quiero ser tuyo
           C              F   Dm   Gm   C
  sea por bien o sea por mal.

e|---10---------------13-12---10--------|
B|------13---10-10-10------------13-----|
G|--------------------------------------|
D|--------------------------------------|
A|--------------------------------------|
E|--------------------------------------|

Interludio:

     F    Dm Gm      C        F      Dm
e|-------------------5--------5--5-5-5----------------|
B|---6---8-6---5-6-8---8--6-8-------------------------|
G|----------------------------------------------------|
D|----------------------------------------------------|
A|----------------------------------------------------|
E|----------------------------------------------------|

  Gm       C         F Dm      Gm         C      F
e|-----5-6-8-6---5-6-8-------5-6-6---6-6-5------------|
B|---8-------------------6-8---------------8-6-8-6----|
G|----------------------------------------------------|
D|----------------------------------------------------|
A|----------------------------------------------------|
E|----------------------------------------------------|

     F7      Bb  Eb7
e|--------------------------------------|
B|---------4-2---4----------------------|
G|-------2------------------------------|
D|---3-5--------------------------------|
A|--------------------------------------|
E|--------------------------------------|

    G#           Fm
  Llévame, si quieres hasta
            Bbm         Eb7
  hasta el fondo del dolor
   G#           Fm
  hazlo, como quieras
          Bbm        Eb7
  por maldad o por amor.

ESTO SE TOCA MIENTRAS EL SIGUIENTE VERSO.

e|-------------13-12-10-12-10-----------|
B|---10---13------------------13--------|
G|--------------------------------------|
D|--------------------------------------|
A|--------------------------------------|
E|--------------------------------------|


     F       Dm
  Pero esta ves
Gm             C                 F       Dm
  quiero entregarme a ti en una forma total


e|------------10------------------------|
B|---------10----13---11-10-11---13-----|
G|---10-12------------------------------|
D|--------------------------------------|
A|--------------------------------------|
E|--------------------------------------|


Gm       C             F
  no con un beso nada más
Dm           Gm
  quiero ser tuyo
           C              F   Dm   Gm   C    F
  sea por bien o sea por mal.


OUTRO:

e|---10---------------13-12---10------10---------|
B|------13---10-10-10------------13--------13----|
G|-----------------------------------------------|
D|-----------------------------------------------|
A|-----------------------------------------------|
E|-----------------------------------------------|

                                                   DICIEMBRE 2010
Добавлено: 12.03.2016
Другие материалы по этой песне:
  • Аккорды и текст

Страница создана 12.03.2016
http://primanota.ru/los-terricolas/entrega-total-chords.htm
Привет, Гость.
Предлагаем пройти революционный курс по гитаре.
Подарок от PrimaNota.Ru, забирай!