PrimaNota.ru - самый крупный в мире бесплатный архив песенных текстов, аккордов, табулатур и нот


Los Straitjackets - Rokula - таба, видео

Регистрация Запомнить меня
Войти через:  Facebook Google Twitter Vk Yandex Mail.ru

Los Straitjackets - Rokula - таба, видео

Печатать
Просмотров: 113
rockula


los straitjackets


TRANSCRIBED BY RUDY GUZMAN


guzman_84@hotmail.com


e:------------------------------------|
B:------------------------------------|
G:------------------------------------|
D:-2-2--2-2--2-2--2-2--2-2--2-2--2-2--|
A:-0-0--3-3--0-0--3-3--0-3--0-0--3-3--|
E:------------------------------------|

e:-----------------------------------|
B:-----------------------------------|
G:-2-2--5-5--2-2--5-5--2-5--2-2--5-5-|
D:-2-2--2-2--2-2--2-2--2-2--2-2--2-2-|
A:-0-0--0-0--0-0--0-0--0-0--0-0--0-0-|
E:-----------------------------------|

e:-----------------------------------5-----------|
B:----10---------------------------5-5--7b-7b--5-|
G:-------9-8---------------------5------7b-7b--5-|
D:-7---------10-7/3-3~~~--2--7-------------------|
A:-----------------------------------------------|
E:-----------------------------------------------|

e:--------------------------------------------------------------------|
B:----10---------------------------------7b-7b~~~-7b------------------|
G:-------9-8-----------------------------7b-7b~~~-7b------------------|
D:-7---------10-7/10-10~~~-10~~~--10~~~---------------2--2-2--7-6-5-3-|
A:--------------------------------------------------------------------|
E:--------------------------------------------------------------------|

e:-----------------------------------5-----------|
B:----10---------------------------5-5--7b-7b--5-|
G:-------9-8---------------------5------7b-7b--5-|
D:-7---------10-7/3-3~~~--2--7-------------------|
A:-----------------------------------------------|
E:-----------------------------------------------|

e:--------------------------------------------------------------------|
B:----10---------------------------------7b-7b~~~-7b------------------|
G:-------9-8-----------------------------7b-7b~~~-7b------------------|
D:-7---------10-7/10-10~~~-10~~~--10~~~---------------2--2-2--7-6-5-3-|
A:--------------------------------------------------------------------|
E:--------------------------------------------------------------------|

bar//
:------------------------------------------------------------------------------------------|
:---------------------7--------------------------------------------------------------------|
:---------5-----------7--------5---------------------------------------------------2-1-0---|
:-------5----4~~~------------5---4~~~--------------4~~~--------------------2-2-1-2-------3-|
:-3~~~-----------------------------------3~~~----3-----------------2-2-1-2-----------------|
:----------------------------------------------5----------3-3--2-3-------------------------|

e:---------20---------------20------------------------------------------------------------|
B:------20----19---------20----19------------19------------------------------17-17-16-17/-|
G:-17----------------17------------17-----17---------------------16-16-15-16--------------|
D:-------------------------------------17------------17-17-16-17--------------------------|
A:----------------------------------------------------------------------------------------|
E:----------------------------------------------------------------------------------------|


e:-----------------------------------5-----------|
B:----10---------------------------5-5--7b-7b--5-|
G:-------9-8---------------------5------7b-7b--5-|
D:-7---------10-7/3-3~~~--2--7-------------------|
A:-----------------------------------------------|
E:-----------------------------------------------|

e:-------------------------------------------------------------------------------|
B:----10---------------------------------7b-7b~~~-7b-----------------------------|
G:-------9-8-----------------------------7b-7b~~~-7b-------------------2~~~~~~~~-|
D:-7---------10-7/10-10~~~-10~~~--10~~~---------------2--2-2--7-6-5-3--2~~~~~~~~-|
A:-------------------------------------------------------------------------------|
E:-------------------------------------------------------------------------------|

e:------------------------------------|
B:------------------------------------|
G:------------------------------------|
D:-2-2--2-2--2-2--2-2--2-2--2-2--2-2--|
A:-0-0--3-3--0-0--3-3--0-3--0-0--3-3--|
E:------------------------------------|

e:-----------------------------------|
B:-----------------------------------|
G:-2-2--5-5--2-2--5-5--2-5--2-2--5-5-|
D:-2-2--2-2--2-2--2-2--2-2--2-2--2-2-|
A:-0-0--0-0--0-0--0-0--0-0--0-0--0-0-|
E:-----------------------------------|


e:------------------------------------|
B:------------------------------------|
G:------------------------------------|
D:-2-2--2-2--2-2--2-2--2-2--2-2--2-2--|
A:-0-0--3-3--0-0--3-3--0-3--0-0--3-3--|
E:------------------------------------|

bar bar bar bar bar bar
e:-----------------------------------|
B:-------2-----------5----------2----|
G:-2-----2-----5-----5----------2----|
D:-2-----2-----5-----5-----2----2----|
A:-0-----------3-----------2----0----|
E:-------------------------0---------|



e:------------------------------------|
B:------------------------------------|
G:------------------------------------|
D:------------------------------------|
A:-2-2--2-2--2-2--2-2--2-2--2-2--2-2--|
E:-0-0--3-3--0-0--3-3--0-3--0-0--3-3--|

e:------------------------------------|
B:------------------------------------|
G:------------------------------------|
D:-2-2--2-2--2-2--2-2--2-2--2-2--2-2--|
A:-0-0--3-3--0-0--3-3--0-3--0-0--3-3--|
E:------------------------------------|

bar//
:------------------------------------------------------------------------------------------|
:---------------------7--------------------------------------------------------------------|
:---------5-----------7--------5---------------------------------------------------2-1-0---|
:-------5----4~~~------------5---4~~~--------------4~~~--------------------2-2-1-2-------3-|
:-3~~~-----------------------------------3~~~----3-----------------2-2-1-2-----------------|
:----------------------------------------------5----------3-3--2-3-------------------------|

e:---------20---------------20------------------------------------------------------------|
B:------20----19---------20----19------------19------------------------------17-17-16-17/-|
G:-17----------------17------------17-----17---------------------16-16-15-16--------------|
D:-------------------------------------17------------17-17-16-17--------------------------|
A:----------------------------------------------------------------------------------------|
E:----------------------------------------------------------------------------------------|


e:-----------------------------------5-----------|
B:----10---------------------------5-5--7b-7b--5-|
G:-------9-8---------------------5------7b-7b--5-|
D:-7---------10-7/3-3~~~--2--7-------------------|
A:-----------------------------------------------|
E:-----------------------------------------------|

e:---------------------------------------------------------------------0----------|
B:----10---------------------------------7b-7b~~~-7b-------------------1----------|
G:-------9-8-----------------------------7b-7b~~~-7b-------------------2----------|
D:-7---------10-7/10-10~~~-10~~~--10~~~---------------2--2-2--7-6-5-3--2~~~~~~~~--|
A:---------------------------------------------------------------------0----------|
E:--------------------------------------------------------------------------------|



outta gear

los straitjackets

guzman_84@hotmail.com


e:-8-8-8-5---------------|
B:-7-7-7-5---------------|
G:---------7-5-----------|
D:-------------7--7--7-7-|
A:-------------0--0--0-0-|
E:-----------------------|

e:-8-8-8-5---------------|
B:-7-7-7-5---------------|
G:---------7-5-----------|
D:-------------7--7--7-7-|
A:-------------0--0--0-0-|
E:-----------------------|

e:------------------------------|
B:------------------------------|
G:------------------------------|
D:-7/9-9-9-9-9-9--5/7-7-7-7-7-7-|
A:-5/7-7-7-7-7-7--3/5-5-5-5-5-5-|
E:------------------------------|

e:------------------------------|
B:------------------------------|
G:------------------------------|
D:-7/9-9-9-9-9-9--5/7-7-7-7-7-7-|
A:-5/7-7-7-7-7-7--3/5-5-5-5-5-5-|
E:------------------------------|

e:-8-8-8-5---------------|
B:-7-7-7-5---------------|
G:---------7-5-----------|
D:-------------7--7--7-7-|
A:-------------0--0--0-0-|
E:-----------------------|

e:--------------------------------|
B:--------------------------------|
G:--------------------------------|
D:-2-2-------2-2-4-2-4b-4-2-2-4-2-|
A:-0-0--4-4--0-0-0-0-0--0-0-0-0-0-|
E:--------------------------------|

e:--------------------------------|
B:--------------------------------|
G:--------------------------------|
D:-2-2-------2-2-4-2-4b-4-2-2-4-2-|
A:-0-0--4-4--0-0-0-0-0--0-0-0-0-0-|
E:--------------------------------|

:--------------------------------|
:--------------------------------|
:-2-2-------2-2-4-2-4b-4-2-2-4-2-|
:-0-0--4-4--0-0-0-0-0--0-0-0-0-0-|
:--------------------------------|
:--------------------------------|

:--------------------------------|
:--------------------------------|
:-2-2-------2-2-4-2-4b-4-2-2-4-2-|
:-0-0--4-4--0-0-0-0-0--0-0-0-0-0-|
:--------------------------------|
:--------------------------------|

e:--------------------------------|
B:--------------------------------|
G:--------------------------------|
D:-2-2-------2-2-4-2-4b-4-2-2-4-2-|
A:-0-0--4-4--0-0-0-0-0--0-0-0-0-0-|
E:--------------------------------|


e:------------------------------|
B:------------------------------|
G:------------------------------|
D:-7/9-9-9-9-9-9--5/7-7-7-7-7-7-|
A:-5/7-7-7-7-7-7--3/5-5-5-5-5-5-|
E:------------------------------|


e:--------------------------------|
B:--------------------------------|
G:--------------------------------|
D:-2-2-------2-2-4-2-4b-4-2-2-4-2-|
A:-0-0--4-4--0-0-0-0-0--0-0-0-0-0-|
E:--------------------------------|

solo 1
e:----5----5----5----5----5---5----5-----------------------------------------------------|
B:------------------------------------------------5-7-5----------------------------------|
G:-7b---7b---7b---7b---7b---7b--7b---7b-7-5-------5-7-5----5-7-7b-7b-7-7p5---5---5-------|
D:------------------------------------------7-5-7-------7------------------7---7---7~~~~-|
A:---------------------------------------------------------------------------------------|
E:---------------------------------------------------------------------------------------|

e:-----5-8-5-----------------------5-5-5-5-8-5--8-5-8-5-8-5--------------------------------|
B:---5-------8-5-------5-7-5-------5-5-5-5-5-5--5-5-5-5-5-5--7-5-----5-5-------------------|
G:-7-------------7-5---5-7-5---------------------------------7-5---------8-7-5-----------5-|
D:-------------------7-------7-5---------------------------------7-7-----------7-5---5-7---|
A:-------------------------------7-------------------------------------------------7-------|
E:-----------------------------------------------------------------------------------------|

:----------------------------5----5--------------------|
:----------------------------5----5--------------------|
:-7b-7b-7-7p5---5---5---5-7b---7b---7p5------7-5-------|
:-------------7---7---7-----------------7p5------7-5---|
:----------------------------------------------------7-|
:------------------------------------------------------|

e:--------------------------------|
B:--------------------------------|
G:--------------------------------|
D:-2-2-------2-2-4-2-4b-4-2-2-4-2-|
A:-0-0--4-4--0-0-0-0-0--0-0-0-0-0-|
E:--------------------------------|

e:--------------------------------|
B:--------------------------------|
G:--------------------------------|
D:-2-2-------2-2-4-2-4b-4-2-2-4-2-|
A:-0-0--4-4--0-0-0-0-0--0-0-0-0-0-|
E:--------------------------------|

:--------------------------------|
:--------------------------------|
:-2-2-------2-2-4-2-4b-4-2-2-4-2-|
:-0-0--4-4--0-0-0-0-0--0-0-0-0-0-|
:--------------------------------|
:--------------------------------|

:--------------------------------|
:--------------------------------|
:-2-2-------2-2-4-2-4b-4-2-2-4-2-|
:-0-0--4-4--0-0-0-0-0--0-0-0-0-0-|
:--------------------------------|
:--------------------------------|

e:--------------------------------|
B:--------------------------------|
G:--------------------------------|
D:-2-2-------2-2-4-2-4b-4-2-2-4-2-|
A:-0-0--4-4--0-0-0-0-0--0-0-0-0-0-|
E:--------------------------------|

e:------------------------------|
B:------------------------------|
G:------------------------------|
D:-7/9-9-9-9-9-9--5/7-7-7-7-7-7-|
A:-5/7-7-7-7-7-7--3/5-5-5-5-5-5-|
E:------------------------------|

e:----------------------------------|
B:----------------------------------|
G:----------------------------------|
D:-2-2-------2-2-4-2-4b-4-2-2-4-2-2-|
A:-0-0--4-4--0-0-0-0-0--0-0-0-0-0-0-|
E:----------------------------------|

solo 2
e:-17-17-17-17-17-17-17-17-20b-20-17-----17----17--------------|
B:-17-17-17-17-17-17-17-17-----------20b----20----20-17----17--|
G:------------------------------------------------------19-----|
D:-------------------------------------------------------------|
A:-------------------------------------------------------------|
E:-------------------------------------------------------------|

e:-----------------------------------------|
B:-----------------------17------17-----17-|
G:-19-17-19-17----17-19b-----19b----19b----|
D:-------------19--------------------------|
A:-----------------------------------------|
E:-----------------------------------------|

e:--------20b-20b-20b-20b----------5-----------------------------------------------5-5---5-|
B:-----17-19b-19b-19b-19b----------5-7-5---------7b-7b-----------------------------5-5---5-|
G:-19b--------------------18/7--7b---7-5-------5-7b-7b-7p5---5------------------7b-----7---|
D:---------------------------------------7-5-7-------------7---7--5-5-5-5-5-5-5------------|
A:-----------------------------------------------------------------------------------------|
E:-----------------------------------------------------------------------------------------|

e:---------------------5----5----5----------------|
B:---------7b-5---5-7b-5----5----5----------------|
G:-7p5---5-7b-5---5-7b---7b---7b----7p5---5---5---|
D:-----7--------7-----------------------7---7---7-|
A:------------------------------------------------|
E:------------------------------------------------|

solo 3
e:-----------------------------------------------------------------------------------------|
B:-/17-17-17-17-17-17--/17-17-17-17-17-17-/17-17-17-17-17-17--/17-17-17-17-17-17-/17-17-17-|
G:-/18-18-18-18-18-18--/18-18-18-18-18-18-/18-18-18-18-18-18--/18-18-18-18-18-18-/18-18-18-|
D:-----------------------------------------------------------------------------------------|
A:-----------------------------------------------------------------------------------------|
E:-----------------------------------------------------------------------------------------|


:------------------------------------------------------5-5-5-7-5-5-5-7-5-8-5-7-5-5-7-5-|
:-17-17-17-17-17-17-17-17-17--/17-17-17-17-17-17-------5-5-5-5-5-5-5-5-5-5-5-5-5-5-5-5-|
:-18-18-18-18-18-18-18-18-18--/18-18-18-18-18-18---------------------------------------|
:--------------------------------------------------------------------------------------|
:--------------------------------------------------------------------------------------|
:-------------------------------------------------20/----------------------------------|


e:-17-17-17-17-17-17------------------------------------------------/12-12-12-12-12-12-12-|
B:-17-17-17-17-17-17--15-13--------15b-15b-15b-15b-15b-15p13--------/12-12-12-14-12-14-12-|
G:--------------------------14--13---------------------------14-14------------------------|
D:----------------------------------------------------------------------------------------|
A:----------------------------------------------------------------------------------------|
E:----------------------------------------------------------------------------------------|

e:-/10-10-10-10-10-10--10---5-5-5-5----------5-5-----------------|
B:-/10-10-10-12-10-12b-10---5-5-5-5----------5-5-----------------|
G:----------------------------------7-5----------7-5-7-5---------|
D:--------------------------------------7-5--------------7-5-7---|
A:---------------------------------------------------------------|
E:---------------------------------------------------------------|

e:--------------------------------|
B:--------------------------------|
G:--------------------------------|
D:-2-2-------2-2-4-2-4b-4-2-2-4-2-|
A:-0-0--4-4--0-0-0-0-0--0-0-0-0-0-|
E:--------------------------------|

e:--------------------------------|
B:--------------------------------|
G:--------------------------------|
D:-2-2-------2-2-4-2-4b-4-2-2-4-2-|
A:-0-0--4-4--0-0-0-0-0--0-0-0-0-0-|
E:--------------------------------|

:--------------------------------|
:--------------------------------|
:-2-2-------2-2-4-2-4b-4-2-2-4-2-|
:-0-0--4-4--0-0-0-0-0--0-0-0-0-0-|
:--------------------------------|
:--------------------------------|

e:--------------------------------|
B:--------------------------------|
G:--------------------------------|
D:-2-2-------2-2-4-2-4b-4-2-2-4-2-|
A:-0-0--4-4--0-0-0-0-0--0-0-0-0-0-|
E:--------------------------------|

e:------------------------------|
B:------------------------------|
G:------------------------------|
D:-7/9-9-9-9-9-9--5/7-7-7-7-7-7-|
A:-5/7-7-7-7-7-7--3/5-5-5-5-5-5-|
E:------------------------------|

e:------------------------------|
B:------------------------------|
G:------------------------------|
D:-7/9-9-9-9-9-9--5/7-7-7-7-7-7-|
A:-5/7-7-7-7-7-7--3/5-5-5-5-5-5-|
E:------------------------------|

e:-8-8-8-5---------------|
B:-7-7-7-5---------------|
G:---------7-5-----------|
D:-------------7--7--7-7-|
A:-------------0--0--0-0-|
E:-----------------------|







hillo son mex


first tabbed in 1999 

re-tabbed 18/06/11
Добавлено: 15.06.2012
Вам также может быть интересно:
Другие материалы по этой песне:
  • Аккорды и текст

Страница создана 15.06.2012
http://primanota.ru/los-straitjackets/rokula-chords.htm
Привет, Гость.
Предлагаем пройти революционный курс по гитаре.
Подарок от PrimaNota.Ru, забирай!