PrimaNota.ru - самый крупный в мире бесплатный архив песенных текстов, аккордов, табулатур и нот


Los Straitjackets - Pacifica - таба, видео

Регистрация Запомнить меня
Войти через:  Facebook Google Twitter Vk Yandex Mail.ru

Los Straitjackets - Pacifica - таба, видео

Печатать
Просмотров: 134
Уроки эстрадного вокала в Санкт-Петербурге
Song:    Pacifica (Eddie Angel/Danny Amis)
Artist:  Los Straitjackets
Album:   Viva Los Straitjackets!

Tabbed by Brian Neal - 9-Aug-2002

Here is what I came up with for this great surfy tune from
our masked heros, Los Straitjackets (http://los.straitjackets.com).

Intro:

     G  Bm Bb Am
||---7--7--6--5---||
||---8--7--6--5---||
||o--7--7--7--5--o||
||o--------------o||
||----------------||
||----------------||


Main Theme (Lead Guitar):

-2--3~---2--3~---2-------------2--3~---2--3~---2-------------|
-0--0~---0--0~---0--3~-0-3-----0--0~---0--0~---0--3~-0-3-----|
-0--0~---0--0~---0-------2-----0--0~---0--0~---0-------2-----|
-------------------------3-----------------------------3-----|
-------------------------------------------------------------|
-------------------------------------------------------------|

-------------------------------------------------------------|
-1-0----1-0----3-0------0----------------0-1--0-1------------|
-----0------0------0--0-0------0-2--0-2--2-2--2-2------------|
----(3)----(3)----(3)---3------3-3--3-3--3-3--3-3------------|
-------------------------------------------------------------|
-------------------------------------------------------------|

-2--3~---2--3~---2-------------2--3--5-2-3~---2--------------|
-0--0~---0--0~---0--3~-0-3-----0--0--0-0-0~---0--3~-0-3------|
-0--0~---0--0~---0-------2-----0--0--0-0-0~---0-------2------|
-------------------------3----------------------------3------|
-------------------------------------------------------------|
-------------------------------------------------------------|

-------------------------------------------------------------|
-1-0----1-0----3-0------0----------------0-1--0-1------------|
-----0------0------0--0-0------0-2--0-2--2-2--2-2------------|
----(3)----(3)----(3)---3------3-3--3-3--3-3--3-3------------|
-------------------------------------------------------------|
-------------------------------------------------------------|

Interlude:
  G       Bm      Bb      Am      D
--7~~-----7~~-----6~~-----5~~--------------------------------|
--8~~-----7~~-----6~~-----5~~-----7-7------------------------|
--7~~-----7~~-----7~~-----5~~-----7-7------------------------|
----------------------------------7-7------------------------|
----------------------------------5-5------------------------|
-------------------------------------------------------------|

  G       Bm      Bb      Am      D
--7~~-----7~~-----6~~-----5~~--------------------------------|
--8~~-----7~~-----6~~-----5~~-----7---7----------------------|
--7~~-----7~~-----7~~-----5~~-----7---7----------------------|
----------------------------------7---7----------------------|
----------------------------------5---5----------------------|
-------------------------------------------------------------|

-2--3~---2--3~---2-------------2--3--5-2-3~---2--------------|
-0--0~---0--0~---0--3~-0-3-----0--0--0-0-0~---0--3~-0-3------|
-0--0~---0--0~---0-------2-----0--0--0-0-0~---0-------2------|
-------------------------3----------------------------3------|
-------------------------------------------------------------|
-------------------------------------------------------------|

-------------------------------------------------------------|
-1-0----1-0----3-0------0----------------0-1--0-1------------|
-----0------0------0--0-0------0-2--0-2--2-2--2-2------------|
----(3)----(3)----(3)---3------3-3--3-3--3-3--3-3------------|
-------------------------------------------------------------|
-------------------------------------------------------------|

Solo (notes with / above them mean bend up;  means release bend):

||------------------------5------------||
||----------/-/---------/----/---------||
||o----7-9-9-9-9-7-7---7----7--5-4--o--||
||o--9------------------------------o--||
||-------------------------------------||
||-------------------------------------||


Play this under the lead guitar solo:

  G       Bm      Bb      Am       G       Bm      Bb      Am
--7~~-----7~~-----6~~-----5~~------7~~-----7~~-----6~~-----5~~--|
--8~~-----7~~-----6~~-----5~~------8~~-----7~~-----6~~-----5~~--|
--7~~-----7~~-----7~~-----5~~------7~~-----7~~-----7~~-----5~~--|
----------------------------------------------------------------|
----------------------------------------------------------------|
----------------------------------------------------------------|

Back to lead guitar:

---------------------5-------5-------7-------7--------8---------8-----|
-----7-------7-----5---5---5---5---7---7---7---7---10---10---10---10--|
---7---7---7---7-5-------5-------7-------7-------9---------9----------|
-7-------7------------------------------------------------------------|
----------------------------------------------------------------------|
----------------------------------------------------------------------|

-----3-------3-------3-------3--------------------------------------|
---5---5---5---5---5---5---5---5---------------0--1---0--1----------|
-5-------5-------4-------4-------0--2---2--0---2--2---2--2----------|
---------------------------------3--3---3--3---3--3---3--3----------|
--------------------------------------------------------------------|
--------------------------------------------------------------------|

-2--3~---2--3~---2-------------2--3--5-2-3~---2--------------|
-0--0~---0--0~---0--3~-0-3-----0--0--0-0-0~---0--3~-0-3------|
-0--0~---0--0~---0-------2-----0--0--0-0-0~---0-------2------|
-------------------------3----------------------------3------|
-------------------------------------------------------------|
-------------------------------------------------------------|

                                                    G
----------------------------------------------------3~-------|
-1-0----3-0----1-0-----------------------0-1--0-1---3~-------|
-----0------0------0--0-0------0-2--0-2--2-2--2-2---0~-------|
----(3)----(3)----(3)---3------3-3--3-3--3-3--3-3---0~-------|
----------------------------------------------------2~-------|
----------------------------------------------------3~-------|
Добавлено: 23.06.2012
Другие материалы по этой песне:
  • Аккорды и текст

Страница создана 23.06.2012
http://primanota.ru/los-straitjackets/pacifica-chords.htm
Привет, Гость.
Предлагаем пройти революционный курс по гитаре.
Подарок от PrimaNota.Ru, забирай!