PrimaNota.ru - самый крупный в мире бесплатный архив песенных текстов, аккордов, табулатур и нот


Los Straitjackets - Outta Gear - таба, видео

Регистрация Запомнить меня
Войти через:  Facebook Google Twitter Vk Yandex Mail.ru

Los Straitjackets - Outta Gear - таба, видео

Печатать
Просмотров: 108
                       LOS STRAITJACKETS
                         OUTTA GEAR

STANDARD TUNING
EADGBe

-8-8-8-5---------------|
-7-7-7-5---------------|
---------7-5-----------|
-------------7--7--7-7-|
-------------0--0--0-0-|
-----------------------|

-8-8-8-5---------------|
-7-7-7-5---------------|
---------7-5-----------|
-------------7--7--7-7-|
-------------0--0--0-0-|
-----------------------|

------------------------------|
------------------------------|
------------------------------|
-7/9-9-9-9-9-9--5/7-7-7-7-7-7-|
-5/7-7-7-7-7-7--3/5-5-5-5-5-5-|
------------------------------|

------------------------------|
------------------------------|
------------------------------|
-7/9-9-9-9-9-9--5/7-7-7-7-7-7-|
-5/7-7-7-7-7-7--3/5-5-5-5-5-5-|
------------------------------|

-8-8-8-5---------------|
-7-7-7-5---------------|
---------7-5-----------|
-------------7--7--7-7-|
-------------0--0--0-0-|
-----------------------|

--------------------------------|
--------------------------------|
--------------------------------|
-2-2--2-2--2-2-4-2-4b-4-2-2-4-2-|
-0-0--3-3--0-0-0-0-0--0-0-0-0-0-|
--------------------------------|

--------------------------------|
--------------------------------|
--------------------------------|
-2-2--2-2--2-2-4-2-4b-4-2-2-4-2-|
-0-0--3-3--0-0-0-0-0--0-0-0-0-0-|
--------------------------------|

--------------------------------|
--------------------------------|
-2-2--2-2--2-2-4-2-4b-4-2-2-4-2-|
-0-0--3-3--0-0-0-0-0--0-0-0-0-0-|
--------------------------------|
--------------------------------|

--------------------------------|
--------------------------------|
-2-2--2-2--2-2-4-2-4b-4-2-2-4-2-|
-0-0--3-3--0-0-0-0-0--0-0-0-0-0-|
--------------------------------|
--------------------------------|

--------------------------------|
--------------------------------|
--------------------------------|
-2-2--2-2--2-2-4-2-4b-4-2-2-4-2-|
-0-0--3-3--0-0-0-0-0--0-0-0-0-0-|
--------------------------------|

------------------------------|
------------------------------|
------------------------------|
-7/9-9-9-9-9-9--5/7-7-7-7-7-7-|
-5/7-7-7-7-7-7--3/5-5-5-5-5-5-|
------------------------------|

----------------------------------|
----------------------------------|
----------------------------------|
-2-2--2-2--2-2-4-2-4b-4-2-2-4-2-2-|
-0-0--3-3--0-0-0-0-0--0-0-0-0-0-0-|
----------------------------------|

---5--5--5--5--5--5--5------------------------------------------------|
-----------------------------------5-7-5------------------------------|
-7b-7b-7b-7b-7b-7b-7b-7b-7-5-------5-7-5---5-7-7b-7b-7-7p5---5---5----|
-----------------------------7-5-7-------7-----------------7---7---7--|
----------------------------------------------------------------------|
----------------------------------------------------------------------|

------5-8-5-----------------------5-5-5-5-8-5--8-5-8-5-8-5------------|
----5-------8-5-------5-7-5-------5-5-5-5-5-5--5-5-5-5-5-5--7-5-------|
--7-------------7-5---5-7-5---------------------------------7-5-------|
--------------------7-------7-5---------------------------------7-7---|
--------------------------------7-------------------------------------|
----------------------------------------------------------------------|

--------------------------------------------------5----5-------------------|
--5-5---------------------------------------------5----5-------------------|
------8-7-5----------5-7b-7b-7-7p5---5---5---5-7b---7b---7p5-----7-5-------|
------------7-5--5-7---------------7---7---7-----------------7p5-----7-5---|
----------------7--------------------------------------------------------7-|
---------------------------------------------------------------------------|

thats it
peace
Добавлено: 13.05.2012
Другие материалы по этой песне:
  • Аккорды и текст

Страница создана 13.05.2012
http://primanota.ru/los-straitjackets/outta-gear-chords.htm
Привет, Гость.
Предлагаем пройти революционный курс по гитаре.
Подарок от PrimaNota.Ru, забирай!