PrimaNota.ru - самый крупный в мире бесплатный архив песенных текстов, аккордов, табулатур и нот


Los Straitjackets - Isnt Love Grand - таба, видео

Регистрация Запомнить меня
Войти через:  Facebook Google Twitter Vk Yandex Mail.ru

Los Straitjackets - Isnt Love Grand - таба, видео

Печатать
Просмотров: 104
Уроки эстрадного вокала в Санкт-Петербурге
"Isn't Love Grand?"
by Los Straitjackets
from the album "Supersonic Guitars in 3-D" (2003)

Music composed by Eddie Angel

Standard Tuning
/ = slide
h = hammer on

  E                                 C#m

----0---0---0---0-----0---0---0----------------|
--5---4---2---0----/5---4---2---2h4--2--0------|
-------------------------------------------1---|
-----------------------------------------------|
-----------------------------------------------|
-----------------------------------------------|

  E                                 C#m

----0---0---0---0-----0---0---0----------------|
--5---4---2---0----/5---4---2---2h4--2---------|
-----------------------------------------------|
-----------------------------------------------|
-----------------------------------------------|
-----------------------------------------------|

 A

-------------------------------------------------------0-0---0h2-0--|
-0h2-0-0----------0h2-0-0----------0h2-0-0---------0h2-----2--------|
---------2-2--------------2-2--------------2-2----------------------|
----------------2----------------2----------------------------------|
--------------------------------------------------------------------|
--------------------------------------------------------------------|

 E            F#m       C#m        F#m       C#m     F#m

-----0---0-----2~-----------------------------------------|
-----0h2-0-----2~-------5-4-2---2-0-----------------------|
-1-1-----------2~-------------------1---0h1---------------|
---------------4~---------------------------4-2-----------|
----------------------------------------------------------|
----------------------------------------------------------|

 E            F#m       C#m        F#m       C#m    B

-----0---0-----2~-----------------------------------------|
-----0h2-0-----2~-------5-4-2---2-0-----------------4--4--|
-1-1-----------2~-------------------1---0h1---------4--4--|
---------------4~---------------------------4-2-----4--4--|
----------------------------------------------------2--2--|
----------------------------------------------------------|

REPEAT ONCE FROM THE TOP!

Then...

 C#m                                        B

---------0---0------0---0------0---0-0---0--------------------|
---------5h7-5------5h7-5------5h7-5-5h7-5--7---5-4--5-5/7----|
-------6-6---6----6-6---6----6-6---6-6---6--8---6-4--6-6/8----|
--------------------------------------------------------------|
--------------------------------------------------------------|
--------------------------------------------------------------|

             A                                             B

-------------5-5--5-----------5---5----5----5-5--5----5-5--7---7---7---7---|
----5---5----5-5--5-----------5---5----5h7--7-5--5h7--7-5--7h9-7h9-7h9-7---|
------6------6-6--6---6~----6---6---6--------------------------------------|
---------------------------------------------------------------------------|
---------------------------------------------------------------------------|
---------------------------------------------------------------------------|

BACK TO THE TOP!

Final Part... (repeat three times before the double "B", and then end on C#m)

  C#m        F#m       C#m         B       C#m

------------------------------||------------4---|
--5-4-2---2-0-----------------||---4--4-----5---|
--------------1---0h1--------o||---4--4-----6---|
----------------------4-2----o||---4--4-----6---|
------------------------------||---2--2-----4---|
------------------------------||----------------|

Tabbed by Nate Adams
Добавлено: 13.03.2012
Другие материалы по этой песне:
  • Аккорды и текст

Страница создана 13.03.2012
http://primanota.ru/los-straitjackets/isnt-love-grand-chords.htm
Привет, Гость.
Предлагаем пройти революционный курс по гитаре.
Подарок от PrimaNota.Ru, забирай!