PrimaNota.ru - самый крупный в мире бесплатный архив песенных текстов, аккордов, табулатур и нот


Los Saicos - Salvaje - аккорды и текст, таба, видео

Регистрация Запомнить меня
Войти через:  Facebook Google Twitter Vk Yandex Mail.ru

Los Saicos - Salvaje - аккорды и текст, таба, видео

Печатать
Просмотров: 130
Salvaje
Los Saicos
CANCION DEDICADA AL PARECER A UN PURA SANGRE

SALVAJE
LOS SAICOS – 1965

singer : CESAR CASTRILLON ( BASS )


INTRO

Em  C  Em  C  Em  C  B7

AHHHHHHHHHHH

         Em
YA YA YA YA
   C         Em
SALVAJE OHHH YA
   C         Em
SALVAJE OHHH YA
   C                   Em
SALVAJE ES UN POTRO CERRIL
C
AHHHHHHH

         Em
YA YA YA YA

   Em
SALVAJE – ( SALVAJE , SALVAJE )
               C
VELOZ COMO EL VIENTO – ( VELOZ COMO EL VIENTO )
               D
CON CASCO DE ACERO – ( CON CASCO DE ACERO )
            B7
MAS YO LO LACE

   Em
SALVAJE – ( SALVAJE , SALVAJE )
                C
ME HECHA DE LA SILLA – ( ME HECHA DE LA SILLA )
            D
TRATA DE PATEARME – ( TRATA DE PATEARME )
            B7
ME QUIERE MATAR

         Em
YA YA YA YA
   C         Em
SALVAJE OHHH YA
   C         Em 
SALVAJE OHHH YA
   C                    Em
SALVAJE ES UN POTRO CERRIL
C
AHHHHHHH

            Em
YA  YA  YA  YA


RIFF

   Em      C       Em      C       Em      C         B7

e|-7---7---8---8---7---7---8---8---7---7---8---8-----7-----7-|
b|--8---8---8---8---8---8---8---8---8---8---8---8-8--7-----7-|
g|---9---9---9---9---9---9---9---9---9---9---9----9--8-----8-|
D|-----------------------------------------------------------|
A|-----------------------------------------------------------|
E|-----------------------------------------------------------|
                                                       WUAAA

   Em      C       Em      C       Em      C         B7

e|-7---7---8---8---7---7---8---8---7---7---8---8-----7-----7-|
b|--8---8---8---8---8---8---8---8---8---8---8---8-8--7-----7-|
g|---9---9---9---9---9---9---9---9---9---9---9----9--8-----8-|
D|---------------------------------------------------------9-|
A|-----------------------------------------------------------|
E|-----------------------------------------------------------|

( repeat song )


End

Em  C  Em  C  Em
              WAU
Добавлено: 22.02.2012
Вам также может быть интересно:
Другие материалы по этой песне:
  • Аккорды и текст

Страница создана 22.02.2012
http://primanota.ru/los-saicos/salvaje-chords.htm
Привет, Гость.
Предлагаем пройти революционный курс по гитаре.
Подарок от PrimaNota.Ru, забирай!